Cifra Club

No No No Intro

Deep Purple

Tablatura: Principal (guitarra)
Tom: C
Okey... I think this is the right way to play the intro,
so here it is:

     From the album: "Fireball"
 (Blackmore/Gillan/Lord/Glover/Paice)

 e-------------------------------------|
 B-------------------------------------|
 G------------------2------------------|
 D-----x-------3h4-----0---------------|
 A--------5h7-------------3p0----------|
 E--5--------------------------3-------|

 e-------------------------------------|
 B-------------------------------------|
 G----------------5--------------------|
 D-----x-------5-----7h5-----5--7------|
 A--------5h7-------------7------------|
 E--5----------------------------------|

 e-------------------------------------|
 B-------------------------------------|
 G------------------2------------------|
 D-----x-------3h4-----0---------------|
 A--------5h7-------------3p0----------|
 E--5--------------------------3-------|

 e-------------------------------------|
 B-------------------------------------|
 G-------------------------------------|
 D-------------------------------------|
 *|
 E--5-------------------------8--------|

Okey. That?s it. If you have any comments or something else to say,
mail to *
reproducciones 74
Acordes para:

    0 comentarios

    mostrar más comentarios

    ¿Conseguiste tocar?

    0 tocaron 0 aún no

    ¡Graba un vídeo tocando No No No Intro y envianoslo!

    00:00 / 00:00
    outros vídeos desta música
    repetir qualidade Automático
    Outros vídeos desta música
    00:00 / 00:00
    Automático
    OK