Cifra Club

Rapture Of The Deep

Deep Purple

Tablatura: Principal (guitarra)
Tom: A
Intro/Riff

E|-----------------0--1--3---1--0---------------------------------|
B|-----------2--3------------------3-h-5-p-3-p-2-3----------------|
G|----2--3--------------------------------------------------------|
D|----------------------------------------------------------------|
A|----------------------------------------------------------------|
E|----------------------------------------------------------------|

E|----------------------------------------------------------------|
B|----2-h-3-p-2-p-0--2------2-h-3-p-2-p-0-2-0-2-------------------|
G|-----------------------------------------------3-2-0------------|
D|----------------------------------------------------------------|
A|----------------------------------------------------------------|
E|----------------------------------------------------------------|

Verse:


A                                                     G
I told you once about a place that I had accidentally stumbled upon
A                                                           G

Can you imagine how it feels to find somewhere that you can do no wrong

         F              Bb              A
But it's alright you're safe in my hands

I'll meet you in the sky tonight and we will trace some undiscovered stars
We'll go beyond the universe beyond all understanding, hey, it's not that far
But if s alright I feel safe in your hands

E|-------------------------------1--3--1--------------------------|
B|-----3-h-5-p-3-p-2-3--(repeat)----------------------------------|
G|----------------------------------------------------------------|
D|----------------------------------------------------------------|
A|----------------------------------------------------------------|
E|----------------------------------------------------------------|

D (With above riff - feel free to play in a different position)

I can't stand living this way
Getting by from day to dayI'm drinking from your loving cup
I told you things were looking up
Oh oh oh so good
Oh it feels so good

We're all the same but then again we're all quite different in our own peculiar ways
We've come so far and now we're going through another phase
But it's alright
We made it so far

I can't stand living this way
Getting by from day to day
I'm drinking from your loving cup
Told you things were looking up

Solo - F# and then G

As we all know if s hard to breathe when something spiritual has taken place
We don't know why we don't know how we've been transformed into a state of grace
But it's alright
We walk in our sleep
Yes it's alright
This is rapture of the deep

Outro
reproducciones 98
Acordes para:

    0 comentarios

    mostrar más comentarios

    ¿Conseguiste tocar?

    0 tocaron 0 aún no

    ¡Graba un vídeo tocando Rapture Of The Deep y envianoslo!

    00:00 / 00:00
    outros vídeos desta música
    repetir qualidade Automático
    Outros vídeos desta música
    00:00 / 00:00
    Automático
    OK