Cifra Club

Rat Bat Blue

Deep Purple

Tablatura: Principal (guitarra)
Tom: Em
E|------------------------------------------| 
B|------------------------------------------| 
G|------------------------------------------| 
D|----2-2p0---2-0------0h2---2-2p0---2-0----| 
A|------------------------------------------| 
E|--0-------0-----0-0------0-------0--------| 6x
 
 
Verso 1 
 
    
E|----------------------------------------------------------------------- 
B|----------------------------------------------------------------------- 
G|--2------------------5------------------0------------------2----------- 
D|--2------------------5------------------0------------------2----------- 
A|--0------------------3------------------x------------------0----------- 
E|----------------------------------------3------------------------------ 
Hey baby, what you gonna do When the lights go up on you ? 
 
E|---------------------------------------
B|---------------------------------------
G|--------5------------------------------
D|------5--------------------------------
A|--6/7-----6p5/3-5-3---3-5-3-5/6p5p3----
E|--------------------5--------------5\--

    
E|------------------------------------------------------------------------------- 
B|----------------------------------------------3-------------------------------- 
G|--2------------------------0------------------2------------------2------------- 
D|--2------------------------0------------------0------------------2------------- 
A|--0------------------------x-------------------------------------0------------- 
E|---------------------------3---------------------------------------------------  
What's your name, can I drive you home? Sweet woman, are you all alone ? 
 
E|---------------------------------------
B|---------------------------------------
G|--------5------------------------------
D|------5--------------------------------
A|--6/7-----6p5/3-5-3---3-5-3-5/6p5p3----
E|--------------------5--------------5\--
 

(Algo mais ou menos assim)  
E|------------------------------------------------------------------------------
B|---3---3-3----3---3-3----3---3-3----3---3-3----3---3-3------------------------
G|---2---2-2----2---2-2----2---2-2----2---2-2----2---2-2-----2---2-2----2---2-2-
D|---0---0-0----0---0-0----0---0-0----0---0-0----0---0-0-----2---2-2----2---2-2-
A|-----------------------------------------------------------0---0-0----0---0-0-
E|------------------------------------------------------------------------------
You're the one for me I'm gonna keep you busy as a bee, could be,  could be 
 
E|---------------------------------------
B|---------------------------------------
G|--------5------------------------------
D|------5--------------------------------
A|--6/7-----6p5/3-5-3---3-5-3-5/6p5p3----
E|--------------------5--------------5\--
 
    
E|----------------- 
B|-------3--------- 
G|-------2----2---- 
D|-2-----0----2---- 
A|-2----------0---- 
E|-0--------------- 
 
 
E|-------------------------------------------------------| 
B|-------------------------------------------------------| 
G|-------------------------------------------------------| 
D|-----------------2-2p0---2-0------0h2---2-2p0---2-0----| 
A|-------------------------------------------------------| 
E|---------------0-------0-----0-0------0-------0--------| 
Rat bat blue 
 
E|------------------------------------------| 
B|------------------------------------------| 
G|------------------------------------------| 
D|----2-2p0---2-0------0h2---2-2p0---2-0----| 
A|------------------------------------------| 
E|--0-------0-----0-0------0-------0--------| 
 
E|-------------------------------------------------------| 
B|-------------------------------------------------------| 
G|-------------------------------------------------------| 
D|-----------------2-2p0---2-0------0h2---2-2p0---2-0----| 
A|-------------------------------------------------------| 
E|---------------0-------0-----0-0------0-------0--------| 2x
Rat bat blue 
 
 
Verso 2 
    
E|----------------------------------------------------------------------- 
B|----------------------------------------------------------------------- 
G|--2------------------5------------------0------------------2----------- 
D|--2------------------5------------------0------------------2----------- 
A|--0------------------3------------------x------------------0----------- 
E|----------------------------------------3------------------------------ 
Now, get up woman, don't be slow It's getting late and I wanna go 
 
E|---------------------------------------
B|---------------------------------------
G|--------5------------------------------
D|------5--------------------------------
A|--6/7-----6p5/3-5-3---3-5-3-5/6p5p3----
E|--------------------5--------------5\--  
 
E|----------------------------------------------------------- 
B|------------------------------3----------------------------
G|--2---------------0-----------2--------------2-------------
D|--2---------------0-----------0--------------2------------- 
A|--0---------------x--------------------------0------------- 
E|------------------3----------------------------------------  
No cause for acting big Got to love, got to live 
 
E|---------------------------------------
B|---------------------------------------
G|--------5------------------------------
D|------5--------------------------------
A|--6/7-----6p5/3-5-3---3-5-3-5/6p5p3----
E|--------------------5--------------5\--  
         

E|------------------------------------------------------------------------------
B|---3---3-3----3---3-3----3---3-3----3---3-3----3---3-3------------------------
G|---2---2-2----2---2-2----2---2-2----2---2-2----2---2-2-----2---2-2----2---2-2-
D|---0---0-0----0---0-0----0---0-0----0---0-0----0---0-0-----2---2-2----2---2-2-
A|-----------------------------------------------------------0---0-0----0---0-0-
E|------------------------------------------------------------------------------
Stick around with me I'm gonna show you things you never...you'd see, you see 
 
E|---------------------------------------
B|---------------------------------------
G|--------5------------------------------
D|------5--------------------------------
A|--6/7-----6p5/3-5-3---3-5-3-5/6p5p3----
E|--------------------5--------------5\--
 
    
E|----------------- 
B|-------3--------- 
G|-------2----2---- 
D|-2-----0----2---- 
A|-2----------0---- 
E|-0---------------  
 
E|-------------------------------------------------------| 
B|-------------------------------------------------------| 
G|-------------------------------------------------------| 
D|-----------------2-2p0---2-0------0h2---2-2p0---2-0----| 
A|-------------------------------------------------------| 
E|---------------0-------0-----0-0------0-------0--------| 
Rat bat blue 
 
E|-------------------------------------------------------| 
B|-------------------------------------------------------| 
G|-------------------------------------------------------| 
D|-----------------2-2p0---2-0------0h2---2-2p0---2-0----| 
A|-------------------------------------------------------| 
E|---------------0-------0-----0-0------0-------0--------|  
You're so fine 
 
E|-------------------------------------------------------| 
B|-------------------------------------------------------| 
G|-------------------------------------------------------| 
D|-----------------2-2p0---2-0------0h2---2-2p0---2-0----| 
A|-------------------------------------------------------| 
E|---------------0-------0-----0-0------0-------0--------| 
Rat bat blue 
 
E|------------------------------------------| 
B|------------------------------------------| 
G|------------------------------------------| 
D|----2-2p0---2-0------0h2---2-2p0---2-0----| 
A|------------------------------------------| 
E|--0-------0-----0-0------0-------0--------|
 

E|----------------------- 
B|----------------------- 
G|----------------------- 
D|----------------------- 
A|--------3---------3---- 
E|--0-3-5---5--3-5----5-- 8x
 
 
E|---------------------------------| 
B|---------------------------------| 
G|---------------------------------| 
D|---------------------------------| 
A|--------3---------------3--------| 
E|--0-3-5---5-5-5-3-5-5-5---5-5-5--| 4x
 
(Solo do teclado)
 

E|------------------------------------------| 
B|------------------------------------------| 
G|------------------------------------------| 
D|----2-2p0---2-0------0h2---2-2p0---2-0----| 
A|------------------------------------------| 
E|--0-------0-----0-0------0-------0--------|4x
 
 
Verso 3 
 
    
E|----------------------------------------------------------------------- 
B|----------------------------------------------------------------------- 
G|--2------------------5------------------0------------------2----------- 
D|--2------------------5------------------0------------------2----------- 
A|--0------------------3------------------x------------------0----------- 
E|----------------------------------------3------------------------------ 
Get out ! You didn't understand I'm a hard loving man 
 
E|---------------------------------------
B|---------------------------------------
G|--------5------------------------------
D|------5--------------------------------
A|--6/7-----6p5/3-5-3---3-5-3-5/6p5p3----
E|--------------------5--------------5\--

    
E|----------------------------------------------------------- 
B|------------------------------3----------------------------
G|--2---------------0-----------2--------------2-------------
D|--2---------------0-----------0--------------2------------- 
A|--0---------------x--------------------------0------------- 
E|------------------3----------------------------------------  
No way you can satisfy The way you look, the way you lie 
 
E|---------------------------------------
B|---------------------------------------
G|--------5------------------------------
D|------5--------------------------------
A|--6/7-----6p5/3-5-3---3-5-3-5/6p5p3----
E|--------------------5--------------5\--
 
        
E|------------------------------------------------------------------------------
B|---3---3-3----3---3-3----3---3-3----3---3-3----3---3-3------------------------
G|---2---2-2----2---2-2----2---2-2----2---2-2----2---2-2-----2---2-2----2---2-2-
D|---0---0-0----0---0-0----0---0-0----0---0-0----0---0-0-----2---2-2----2---2-2-
A|-----------------------------------------------------------0---0-0----0---0-0-
E|------------------------------------------------------------------------------
And when you shut the door Make sure I don't see you 'round here no more, no more 
 
E|---------------------------------------
B|---------------------------------------
G|--------5------------------------------
D|------5--------------------------------
A|--6/7-----6p5/3-5-3---3-5-3-5/6p5p3----
E|--------------------5--------------5\--
 
    
E|----------------- 
B|-------3--------- 
G|-------2----2---- 
D|-2-----0----2---- 
A|-2----------0---- 
E|-0--------------- 
 
E|------------------------------------------| 
B|------------------------------------------| 
G|------------------------------------------| 
D|----2-2p0---2-0------0h2---2-2p0---2-0----| 
A|------------------------------------------| 
E|--0-------0-----0-0------0-------0--------| (Até o fim)
reproducciones 16
Acordes para:

    0 comentarios

    mostrar más comentarios

    ¿Conseguiste tocar?

    0 tocaron 0 aún no

    ¡Graba un vídeo tocando Rat Bat Blue y envianoslo!

    00:00 / 00:00
    outros vídeos desta música
    repetir qualidade Automático
    Outros vídeos desta música
    00:00 / 00:00
    Automático
    OK