Cifra Club

Smoke on The Water

Deep Purple

Cifrado: Principal (guitarra y guitarra eléctrica)
Selo Cifra Club: esta cifra foi revisada para atender aos critérios oficiais da nossa Equipe de Qualidade.
tono: Gm
[Intro]

[Tab - Riff]

E|-----------------------------------------|
B|-----------------------------------------|
G|---3-5----3-6-5----3-5--3----------------| (6x)
D|-5-3-5--5-3-6-5--5-3-5--3--5-------------|
A|-5------5--------5---------5-------------|
E|-----------------------------------------|

[Primeira Parte]

   G5
We all came out to Montreux
               F5    G5
On the lake Geneva shoreline

To make records with a mobile
F5            G5
   We didn't have much time

Frank Zappa & the Mothers
                   F5    G5
Were at the best place around

But some stupid with a flare gun
                  F5      G5
Burned the place to the ground

[Refrão]

  C5          Ab5
Smoke on the water
 G5
Fire in the sky
  C5          Ab5
Smoke on the water

[Tab - Riff]

E|-----------------------------------------|
B|-----------------------------------------|
G|---3-5----3-6-5----3-5--3----------------| (2x)
D|-5-3-5--5-3-6-5--5-3-5--3--5-------------|
A|-5------5--------5---------5-------------|
E|-----------------------------------------|

[Segunda Parte]

G5
   They burned down the gambling house
                F5     G5
It died with an awful sound

Funky & Claude was running in and out
F5          G5
   Pulling kids out of the ground

When it all was over
                 F5          G5
We had to find another place

But Swiss time was running out
                         F5           G5
It seemed that we would lose the race

[Refrão]

  C5          Ab5
Smoke on the water
 G5
Fire in the sky
  C5          Ab5
Smoke on the water

[Tab - Riff]

E|-----------------------------------------|
B|-----------------------------------------|
G|---3-5----3-6-5----3-5--3----------------| (2x)
D|-5-3-5--5-3-6-5--5-3-5--3--5-------------|
A|-5------5--------5---------5-------------|
E|-----------------------------------------|

[Solo] G5  C5  G5  C5  G5
       C5  G5  C5  G5
       C5  F5

[Tab - Solo]

Parte 1 De 10
E|------------------------------------------|
B|----------------b15r13p11---------11b-----|
G|----10-12~----------------12~-------------|
D|-12---------------------------------------|
A|------------------------------------------|
E|------------------------------------------|

Parte 2 De 10
E|------------------------------------------|
B|----------11-11b13------------------------|
G|----10-12---------------------------------|
D|-12---------------------------------------|
A|------------------------------------------|
E|------------------------------------------|

E|------------------------------------------|
B|-11-10-8-10-8h10p8----8-------------------|
G|-------------------10---------------------|
D|------------------------------------------|
A|------------------------------------------|
E|------------------------------------------|

E|------------------------------------------|
B|------------------------------------------|
G|-10-8--10-10-12-10-12~--------------------|
D|------------------------------------------|
A|------------------------------------------|
E|------------------------------------------|

Parte 3 De 10
E|------------------------------------------|
B|----11-13-11-13~----13~----11-------------|
G|-12---------------------12----12----------|
D|------------------------------------------|
A|------------------------------------------|
E|------------------------------------------|

E|------------------------------------------|
B|-11-13-11-10------------------------------|
G|--------------12-11-10--------10----------|
D|------------------------13-10----13-12p10-|
A|------------------------------------------|
E|------------------------------------------|

E|------------------------------------------|
B|------------------------------------------|
G|------------------------------------------|
D|------------------------------------------|
A|-13-12-10---------------------------------|
E|------------------------------------------|

Parte 4 De 10
E|------------------------------------------|
B|------------------------------------------|
G|----------8-7-----------------------------|
D|-8-7-10-8-----10-8b10r8~------------------|
A|------------------------------------------|
E|------------------------------------------|

E|------------------------------------------|
B|------------------------------------------|
G|------------------------------------------|
D|-10-8-7-8-7-8-7-5-------------------------|
A|------------------------------------------|
E|------------------------------------------|

Parte 5 De 10
E|------------------------------------------|
B|---6-8-6-8-8-6----------------------------|
G|-7-------------7-6-5-------5-3------------|
D|---------------------8-7-5----------------|
A|------------------------------------------|
E|------------------------------------------|

E|------------------------------------------|
B|------------------------------------------|
G|-5b7-5b7-5b7-5b7--------------------------|
D|------------------------------------------|
A|------------------------------------------|
E|------------------------------------------|

Parte 6 De 10
E|-------------6-8b10~-----8b10-8-6-8-------|
B|---6-8---6-8-------------------------8~---|
G|-7-----7----------------------------------|
D|------------------------------------------|
A|------------------------------------------|
E|------------------------------------------|

Parte 7 De 10
E|------------------------------------------|
B|----11-------------11-13-11----13-11------|
G|-12-------------12----------12------------|
D|------------------------------------------|
A|------------------------------------------|
E|------------------------------------------|

E|------------------------------------------|
B|----13-11-13-15-16-18-18b20~--------------|
G|-12---------------------------------------|
D|------------------------------------------|
A|------------------------------------------|
E|------------------------------------------|

Parte 8 De 10
E|----------15------------------------------|
B|-18b20-18----18-18b20---------------------|
G|------------------------------------------|
D|------------------------------------------|
A|------------------------------------------|
E|------------------------------------------|

E|------------------------------------------|
B|-18b20-18-15-13-15~-----------------------|
G|------------------------------------------|
D|------------------------------------------|
A|------------------------------------------|
E|------------------------------------------|

Parte 9 De 10
E|------------------------------------------|
B|-----6------------------------------------|
G|-5b7---5b6r5p3-5-3------------------------|
D|-------------------5~---------------------|
A|------------------------------------------|
E|------------------------------------------|

E|------------------------------------------|
B|-------13-11-13-13b15----b15-b15-b15-b15--|
G|-11/12------------------------------------|
D|------------------------------------------|
A|------------------------------------------|
E|------------------------------------------|

Parte 10 De 10
E|------------------------------------------|
B|-b15-b15-b15-b15-b15-b15-b15-b15----------|
G|------------------------------------------|
D|------------------------------------------|
A|------------------------------------------|
E|------------------------------------------|

E|------------------------------------------|
B|-r14-r14-r14-r13--13----------------------|
G|---------------------10b12~---------------|
D|------------------------------------------|
A|------------------------------------------|
E|------------------------------------------|

[Tab - Riff]

E|-----------------------------------------|
B|-----------------------------------------|
G|---3-5----3-6-5----3-5--3----------------|
D|-5-3-5--5-3-6-5--5-3-5--3--5-------------|
A|-5------5--------5---------5-------------|
E|-----------------------------------------|

[Terceira Parte]

G5
   We ended up at the Grand Hotel
       F5      G5
It was empty, cold and bare

But with the Rolling Trucks Stones

Thing just outside
F5             G5
   Making our music there

With a few red lights and a few old beds
            F5       G5
We made a place to sweat

No matter what we get out of this
       F5               G5
I know,   I know we'll never forget

[Refrão]

  C5          Ab5
Smoke on the water
 G5
Fire in the sky
  C5          Ab5
Smoke on the water

[Tab - Riff]

E|-----------------------------------------|
B|-----------------------------------------|
G|---3-5----3-6-5----3-5--3----------------| (6x)
D|-5-3-5--5-3-6-5--5-3-5--3--5-------------|
A|-5------5--------5---------5-------------|
E|-----------------------------------------|
Otros videos de esta canción
    1.955.090 exhibiciones
    • Simplificar cifrado
      • ½ Tono
      • Am
      • Bbm
      • Bm
      • Cm
      • C#m
      • Dm
      • Ebm
      • Em
      • Fm
      • F#m
      • Gm
      • G#m
    • Agregar a la lista

    Afinación de cifrado

    Afinador online

      Capítulos
      • Início
      • Tocando a música
      • Tocando riff (intro)
      • Ensinando riff (intro)
      • Acordes da base - estrofes (power chords)
      • Tocando estrofes
      • Ensinando ritmo da base estrofes (parte 1 e 2)
      • Dicas sobre escalas
      • Escala pentatônica 01
      • Escala de Blues 01
      • Escala pentatônica 02
      • Escala de Blues 02
      • Tocando solo
      • Técnicas para o solo
      • Solo (parte 1)
      • Solo (parte 2)
      • Solo (parte 3)
      • Solo (parte 4)
      • Solo (parte 5)
      • Solo (parte 6)
      • Solo (parte 7)
      • Solo (parte 8)
      • Solo (parte 9)
      • Solo (parte 10)
      • Tocando solo (tablatura)
      • Dicas para variação e final da música
      • Exercícios para escala
      • Exercícios para técnica
      • Exercícios para musicalidade
      • Encerramento
      • Extras
      OK