Cifra Club

Smoke on The Water

Deep Purple

Tab de bajo: Versão 7
|-----|-----|-----|----|
|*----|-----|-----|---*|
|*----|-----|-----|---*|
|-----|-----|-----|----|

|-----|-----|-----|-----|-----|-----|-----|-----------|
|-----|-----|-----|-----|-----|-----|-----|-----------|
|-----|-----|-----|-----|-----|-----|-----|-----------|
|-----|-----|-----|-----|-----|-----|-----|--0--1--2--|

|--------------------------|--------------------------|--------------------------|
|*-------------------------|--------------------------|--------------------------|
|*-------------------------|--------------------------|--------------3--3--3--1--|
|--3--3--3--3--3--3--3--3--|--3--3--3--3--3--3--3--3--|--3--3--3--3--------------|

 1______________________  2________
|-----------------------|-----------------------|
|----------------------*|-----------------------|
|----------------------*|-----------------------|
|--3--3--3--3--3--1--2--|--3--3--3--3--0--1--2--|

   all came out...                             lake...
   they burned...                              died...
                                                                        cold and bare...
|---------------------|---------------------|------------------------|-----------------------|
|*-------5---------5--|--------5------------|--------5---3-----------|-----------5-----------|
|*----5---------5-----|-----5-----1--3---5--|-----5---------3--------|--1--3--5-----5--3--1--|
|--3---------3--------|--3------------------|--3---------------1--3--|-----------------------|

   to make...
   Funky...
   rolling...
|---------------------|-----------------------|---------------------|--------------------------|
|--------5---------5--|--------5-----5-----5--|--------5---3--------|--------------------------|
|-----5---------5-----|-----5-----5-----5-----|-----5---------3-----|-----5--4--3--1-----------|
|--3---------3--------|--3--------------------|--3---------------1--|--3--------------3--1--2--|

       Frank...                                      at the...
       when...                                       had to...
   few red...                                            we made...
|--------------------|----------------------------|------------------------|
|--------5--------5--|-----3/5--3-----------------|--------5---3-----------|
|-----5--------5-----|-------------5--3--1--------|-----5---------3--------|
|--3---------3-------|--3-------------------3--1--|--3---------------1--1--|

                             but some...
                             but swiss...
                             no matter...
|-------------------------|---------------------|--------------------------|
|-----3/5--3--------------|--------5---------5--|-----5--------3-----------|
|-------------5--3-----3--|-----5---------5-----|--------3--5-----5--3--5--|
|--3----------------6-----|--3---------3--------|--3-----------------------|

|---------------------|-----------------------------|-----|-----|------------------------|
|--------5---3--------|--------3/5--3---------------|-----|-----|------------------------|
|-----5---------3-----|----------------5--3---------|--3--|-----|------1-----1-----------|
|--3---------------1--|--3--3----------------6---3--|-----|--4--|--3------3-----3--1--3--|

|--------------------|-----|-----------------|
|--------------------|-----|-----------------|
|-----1-----1--------|--3--|-----------------|
|--3-----3-----3--1--|-----|--4-----0--1--2--|

 1__________________
|--------------------------|--------------------------|--------------------------|
|--------------------------|--------------------------|--------------------------|
|--------------------------|--------------------------|--------------3--3--3--1--|
|--3--3--3--3--3--3--3--3--|--3--3--3--3--3--3--3--3--|--3--3--3--3--------------|

|-----------------------|--------------------------|--------------------------|
|-----------------------|--------------------------|--------------------------|
|-----------------------|--------------------------|--------------------------|
|--3--3--3--3--3--1--2--|--3--3--3--3--3--3--3--3--|--3--3--3--3--3--3--3--3--|

|--------------------------|----------------------|
|--------------------------|-----------3/5--3----*|
|--------------3--3--3--1--|-------------------5-*|
|--3--3--3--3--------------|--3--3--3-------------|

 2___________
|--------------------------|--------------------------|--------------------------|
|--------------------------|--------------------------|--------------------------|
|--------------------------|--------------------------|--------------3--3--3--1--|
|--3--3--3--3--3--3--3--3--|--3--3--3--3--3--3--3--1--|--3--3--3--3--------------|

|-----------------------|--------------------------|--------------------------|
|-----------------------|--------------------------|--------------------------|
|-----------------------|--------------------------|--------------------------|
|--3--3--3--3--0--1--2--|--3--3--3--3--3--3--3--3--|--3--3--3--3--3--0--1--2--|

|--------------------------|-----------------------|--------------------------|
|--------------------------|-----------------------|-----------0--5--3--------|
|--------------3--3--3--1--|-----------------------|-----1--3-----------5--3--|
|--3--3--3--3--------------|--3--3--3--3--3--1--2--|--3-----------------------|

|--------------------------|-----------0--------------|----------------------------|
|-----------------------0--|-----1--3-----3--1--------|-----3/5--3--------------3--|
|--1--------------1--3-----|--3-----------------3--1--|-------------5-----3--5-----|
|-----3--1--2--3-----------|--------------------------|--3-------------6-----------|

|--------------------------|--------------------------|-----0--------------------|
|--5-----------5--------3--|-----------------------0--|--------3--1-----------1--|
|--------3--------3--5-----|--1--3--1-----------1-----|--3-----------3--1--3-----|
|-----6-----3--------------|-----------3--1--3--------|--------------------------|

|--0--3--2-----------------|
|-----------3-----------3--|
|--------------5--3--5-----|
|--------------------------|

|--------------------------|-----------------3--------|-----------0--------------|
|--5--0--3--0--------------|--------3--5--5-----5--3--|-----1--3-----3--1--------|
|--------------3--1-----1--|--3--5--------------------|--3-----------------3--1--|
|--------------------3-----|--------------------------|--------------------------|

|-------------------------|--------------------3-----|--------------------------|
|----------------3--5--3--|-----------0--3--0-----3--|--5--3--------------------|
|-----1---3---5-----------|-----1--3-----------------|--------5--3--1-----1--2--|
|--3----------------------|--3-----------------------|-----------------3--------|

|--------------------------|--------------------------|-----|-----|
|-----5-----3--5--3-----3--|--3/5---3-----------------|-----|-----|
|--3-----6-----------6-----|-----------5--3-----------|--3--|-----|
|--------------------------|-----------------6--3--6--|-----|--1--|

|-----------------|--------------------------|--------------------------|
|-----------------|--------------------------|--------------------------|
|-----------------|--------------------------|--------------------------|
|--1-----0--1--2--|--3--3--3--3--3--3--3--3--|--3--3--3--3--3--3--3--3--|

|--------------------------|-----------------------|
|--------------------------|-----------------------|
|--------------3--3--3--1--|-----------------------|
|--3--3--3--3--------------|--3--3--3--3--3--1--2--|

|--------------------------|--------------------------|--------------------------|
|--------------------------|--------------------------|--------------------------|
|--------------------------|--------------------------|--------------3--3--3--1--|
|--3--3--3--3--3--3--3--3--|--3--3--3--3--3--0--1--2--|--3--3--3--3--------------|

|-----------------------|--------------------------|--------------------------|
|-----------------------|*-------------------------|--------------------------|
|-----------------------|*-------------------------|--------------------------|
|--3--3--3--3--0--1--2--|--3--3--3--3--3--3--3--3--|--3--3--3--3--3--3--1--2--|

|--------------------------|----------------------------|
|--------------------------|---------------------------*|
|--------------3--3--3--1--|---------------------------*|
|--3--3--3--3--------------|--3--3--3--3--3--(0)--1--2--|

|--------------------------|--------------------------|--------------------5-----|
|--------5--5--------5--5--|--------5--5--------5--5--|--------5--5--------------|
|--------------------------|--------------------------|--------------3--3-----1--|
|--3--3--------3--3--------|--3--3--------3--3--------|--3--3--------------------|

|--3--------------------------------------|--------------------------|-----------------------|
|------5--3------------------------------*|--------5--5--------5--5--|--------5--5--------5--|
|------------(5)--5--(4)-----(3)--3------*|--------------------------|-----------------------|
|---3--(6)----------------6----------(6)--|--3--3--------3--3--------|--3--3--------3--3-----|

|--------------------5--5--|-----3--------------------|------------------------|
|-----------5--------------|--------------------------|--------5---------5--5--|
|--------------3--3--------|--1-----------------1--5--|------------------------|
|--3--3--3-----------------|--------1--3--1--3--------|--3--3------3--3--------|

|--------------------------|----------------------------|--------------------------|
|--------5--5--------5--5--|----------------------------|--------------------------|
|--------------------------|--1-----------1--3/5--3--1--|--1--1--------1-----------|
|--3--3--------3--3--------|-----3--1--3----------------|--------1--3-----0--1--2--|

|--------------------------|--------------------------|--------------------------|
|--------------------------|--------------------------|--------------------------|
|--------------------------|--------------------------|--------------------------|
|--3--3--3--3--3--3--3--3--|--3--3--3--3--3--3--3--3--|--3--3--3--3--3--3--3--3--|
00:00 / 00:00
Otros videos de esta canción
Repetir
Otros videos de esta canción
Composición de Ian Gillan / Ian Paice / Jon Lord / Ritchie Blackmore / Roger Glover
Colaboración y revisión:
  • valdir júnior
17 vistas

0 comentarios

Ver todos los comentarios
00:00 / 00:00
Capítulos
  • Tocando a música
  • Dicas iniciais / Equipamentos
  • Introdução
  • Primeira Parte
  • Dicas Refrão
  • Refrão
  • Introdução 2
  • Dicas Segunda Parte
  • Segunda Parte
  • Refrão 2
  • Dicas Introdução 3
  • Introdução 3
  • Solo de Guitarra
  • Dicas Introdução 4
  • Introdução 4
  • Terceira Parte
  • Dicas Refrão 3
  • Refrão 3
  • Introdução Final
  • Encerramento
  • Ficha Técnica / Eros de Gravação
OK