Cifra Club

Smooth Dancer

Deep Purple

Tab de bajo: Principal
|-----------------------|--------|--------|--------|-----------------------|
|-----------------------|*-------|--------|--------|-----------------------|
|-----------6--5--3-----|*-------|--3-----|--------|-----------6--5--3-----|
|--0--3--5-----------3--|--3--5--|-----5--|--3--5--|--0--3--5-----------3--|

|--------|--------|--------|-----------------------|--------|--------|--------|--------------------|
|--------|--------|--------|-----------------------|--------|--------|--------|--------------------|
|--------|--3-----|--------|-----------6--5--3-----|--------|--3-----|--------|-----------6--5--3--|
|--3--5--|-----5--|--3--5--|--0--3--5-----------3--|--3--5--|-----5--|--3--5--|--0--3--5-----------|

|--------|--------|--------2--2--2--2--2--2--|--2--2--2--2--2-----------|
|--------|--------|--------------------------|-----------------2--5--2--|
|--------|--3-----|--------------------------|--------------------------|
|--3--5--|-----5--|--3--5--------------------|--------------------------|

   smooth...                              but...
   smooth...                              but...
|-----------------------|--------------2-----------|-----------------------2--|--2--------------------|
|--------2--2--3--3--4--|-----------------5--2-----|--------2--2--3--3--5-----|-----5--5--2--2--------|
|--3--3-----------------|--------3--5-----------5--|--3--3--------------------|-----------------5-----|
|-----------------------|--3--5--------------------|--------------------------|--------------------3--|

   freelancer                                         never break...         try...
   freelancer                                         never take...          try...
|-----------------------|--------------------------|--5------5------5-----|--5------5------5-----|
|--------2--2--3--3--4--|--------------------5--7--|------7------7-----7--|------7------7-----7--|
|--3--3-----------------|-----------------7--------|----------------------|----------------------|
|-----------------------|--3--5--5--5--5-----------|----------------------|----------------------|

   magical                                            baby you're...          never see...
   magical                                            I think...              two timing...
|--5--6--7-----------------|-----------------------|-----------------------|------------------------|
|-----------5--6--7--------|-----------------------|--------7--7--7--5-----|--7--5-----7---5-----4--|
|--------------------3--4--|--5--------------------|--------------------7--|--------7---------7-----|
|--------------------------|------0-----1---2---3--|--5--5-----------------|------------------------|

   don't shine...                                        don't you look...       gonna shake...
   bother me...                                          better do it...         
|--------------------------|--------------------------|-----------------------|------------------------|
|--5--5--5--4--------------|--------------------------|--------7--7--7--5-----|--7--5-----7---5-----4--|
|--------------5--5--5-----|--------------------------|--------------------7--|--------7---------7-----|
|-----------------------0--|--5--2--0--5--5--2--0--0--|--5--5-----------------|------------------------|

   hang on...                                            wanna rule...
   walk to...                                            know I loved...
|--------------------------|--------------------------|-----------------------|------------------------|
|--5--5--5--4--------------|--------------------------|--------7--7--7--5-----|--7--5-----7---5-----4--|
|--------------5--5--5-----|--------------------------|--------------------7--|--------7---------7-----|
|-----------------------0--|--5--2--0--5--5--2--0--0--|--5--5-----------------|------------------------|

   false...
   don't...
|--------------------------|--------------------------|-----------------------|------------------------|
|--5--5--5--4--------------|--------------------------|--------7--7--7--5-----|--7--5-----7---5-----4--|
|--------------5--5--5-----|--------------------------|--------------------7--|--------7---------7-----|
|-----------------------0--|--5--2--0--5--5--2--0--0--|--5--5-----------------|------------------------|

                                                                             1_____________________
   swollen...              but your...              keep...
   see it...               got to...                I ain't...
|-----------------------|------------------------|--------------------------|----------------------|
|--------7--7--7--5-----|--7--5-----7---5-----4--|--5--5--5--4-----------7--|--7--4--7--7--4h5--7--|
|--------------------7--|--------7---------7-----|--------------5--5--5-----|----------------------|
|--5--5-----------------|------------------------|--------------------------|----------------------|

                                                    2________________
|---------|---------|-----|-----------------------|--------------------------|
|---------|---------|-----|----------------------*|--7--7--4--7--7--4--------|
|---------|---------|-----|-----------6--5--3----*|--------------------7-----|
|--0---1--|--2---3--|--3--|--0--3--5-----------3--|-----------------------0--|

|---------|---------|-----|-----------|---------|-----------|---------|-----------|---------|-----------|
|---------|---------|-----|-----------|---------|-----------|---------|-----------|---------|-----------|
|---------|---------|-----|-----5-----|--7---7--|-----5-----|--7---7--|-----5-----|--7---7--|-----5-----|
|--0---1--|--2---3--|--3--|--7-----0--|---------|--7-----0--|---------|--7-----0--|---------|--7-----0--|

|---------|-----------|---------|-----------|---------|-----------|---------|-----------|
|---------|-----------|---------|-----------|---------|-----------|---------|-----------|
|--7---7--|-----5-----|--7---7--|-----5-----|--7---7--|-----5-----|--7---7--|-----5-----|
|---------|--7-----0--|---------|--7-----0--|---------|--7-----0--|---------|--7-----0--|

|---------|-----------|---------|---------|---------|-----|--------------------------|
|---------|-----------|---------|---------|---------|-----|--------------------------|
|--7---7--|-----5-----|---------|---------|---------|-----|--------------------------|
|---------|--7-----0--|--0---1--|--2---3--|--4---5--|--5--|--5--5--5--5--5--5--5--5--|

|--------------10--9--7--|--------|--------|--------|-----------10--9--7-----|
|--------7--9------------|--7--9--|--------|--------|-----7--9------------7--|
|-----9------------------|--------|--5-----|--------|--9---------------------|
|--5---------------------|--------|-----7--|--5--7--|------------------------|

|--------|--------|--------|-----------10--9--7-----|
|--7--9--|--------|--------|-----7--9------------7--|
|--------|--5-----|--------|--9---------------------|
|--------|-----7--|--5--7--|------------------------|

|--------|--------|--------|-----------10--9--7-----|
|--7--9--|--------|--------|-----7--9------------7--|
|--------|--5-----|--------|--9---------------------|
|--------|-----7--|--5--7--|------------------------|

|--------|--------|--------|-----------10--9--7-----|
|--7--9--|--------|--------|-----7--9------------7--|
|--------|--5-----|--------|--9---------------------|
|--------|-----7--|--5--7--|------------------------|

                     know what...               do             you're
|--------|--------|--------4--4--4--4--4--4--|--4--4--4--4--4-----------|
|--7--9--|--------|--------------------------|-----------------7--4--4--|
|--------|--5-----|--------------------------|--------------------------|
|--------|-----7--|--5--7--------------------|--------------------------|

   smooth
|-----------------------|--4--4--4--4--------4--|-----------------------4--|
|--------4--4--5--5--7--|--------------4--7-----|--------4--4--5--5--7-----|
|--5--5-----------------|-----------------------|--5--5--------------------|
|-----------------------|-----------------------|--------------------------|

                              freelancer
|--4--4--------------------|------------------------|--4--4--4--4-----------|
|--------7--7--4--4--------|------4--4--5--5--7--7--|--------------4--7--4--|
|--------------------7--7--|--5---------------------|-----------------------|
|--------------------------|------------------------|-----------------------|

   tell you're...        try to...             magical
|--7---4--7--4--7--4--|--7---4--7--4--7--4--|--7--8--9-----------------|
|---------------------|---------------------|-----------7--8--9--------|
|---------------------|---------------------|--------------------5--6--|
|---------------------|---------------------|--------------------------|

|--------------------|---------------------|-----------------------|
|--------------------|--9--9------9--7-----|--9--7-----9--7-----7--|
|--7-----------------|--------9---------9--|--------9--------9-----|
|-----2---3---4---5--|---------------------|-----------------------|

   don't shine...                                don't you look...
|-----------------------|---------------------|-----------------------|
|--7--7--7--7-----------|--9--6------9--6-----|--9--7-----9--7-----6--|
|--------------7--7--7--|--------9---------9--|--------9--------9-----|
|-----------------------|---------------------|-----------------------|

   gonna shake...          hang...
|-----------------------|---------------------|------------------------|
|--9--7-----9--7-----7--|--7--7--7------------|--9--7------9--7-----7--|
|--------9--------9-----|------------7--7--7--|--------9---------9-----|
|-----------------------|---------------------|------------------------|

   know I loved...         wanna...                don't...
|-----------------------|-----------------------|---------------------|------------------------|
|--9--7-----9--7-----6--|--9--7-----9--7-----7--|--7--7--7------------|--9--7------9--7-----7--|
|--------9--------9-----|--------9--------9-----|------------7--7--7--|--------9---------9-----|
|-----------------------|-----------------------|---------------------|------------------------|

   see it...               got to...               I ain't...
|-----------------------|-----------------------|---------------------|------------------------|
|--9--7-----9--7-----6--|--9--7-----9--7-----7--|--7--7--7------------|--9--7------9--7-----7--|
|--------9--------9-----|--------9--------9-----|------------7--7--7--|--------9---------9-----|
|-----------------------|-----------------------|---------------------|------------------------|

   baby you can...         you can...
|-----------------------|-----------------------|-----6--9-----------------|
|--9--7-----9--7-----7--|--9--7-----9--7-----7--|--7--------7-----6--9--6--|
|--------9--------9-----|--------9--------9-----|--------------7-----------|
|-----------------------|-----------------------|--------------------------|

                              baby you can...         you can never...
|--------------------------|-----------------------|--------------------------|
|--9--9--7--7--6--6--------|--9--7-----9--7--7--7--|--9--7-----9--9--7-----7--|
|--------------------9--9--|--------9--------------|--------9-----------9-----|
|--------------------------|-----------------------|--------------------------|

   smooth...
|------------------------|-------------------|-----|-------------|-----|-----|
|--7---7--7-----------9--|--9--6--9----------|-----|-------------|-----|-----|
|------------7--7--7-----|-------------------|-----|-------------|-----|-----|
|------------------------|-------------0--2--|--3--|--4---5---6--|--7--|--7--|
00:00 / 00:00
Otros videos de esta canción
Repetir
Otros videos de esta canción
Composición de Ian Gillan / Ian Paice / Jon Lord / Ritchie Blackmore / Roger Glover
Colaboración y revisión:
  • valdir júnior
55 vistas

0 comentarios

Ver todos los comentarios

¿Lograste tocar?

0 Tocaron 0 Aún no

¡Graba un video tocando Smooth Dancer y envíanoslo!

00:00 / 00:00
OK