Cifra Club

Space Truckin

Deep Purple

Tab de bajo: Versão 4
|-----|----------------|-----|---------|--------|-----|
|-----|*---------------|-----|---------|-------*|-----|
|-----|*--------5---3--|-----|--3---5--|-------*|-----|
|-----|--3--5----------|--5--|---------|--3--5--|-----|


|-----|----------------|-----|---------|--------|-----|
|-----|----------------|-----|---------|--------|-----|
|-----|---------5---3--|-----|--3---5--|--------|-----|
|-----|--3--5----------|--5--|---------|--3--5--|-----|

   had a lot...                         always...
                                        pony trekker...                           
|-------------------|----------------|----------------------|-------------------|
|*------------------|----------------|----------------------|-------------------|
|*------------------|----------------|--3--3---3--5--5---5--|-------------------|
|--5--5---5--5---5--|--5---5--5---5--|----------------------|--5--5---5--5---5--|

   meeting...                           rocked...
   move to...                           every...
|-------------------|----------------|----------------------|---------------------|
|-------------------|----------------|----------------------|---------------------|
|-------------------|----------------|--3--3---3--5--5---5--|---------------3--4--|
|--5--5---5--5---5--|--5---5--5---5--|----------------------|--5--5---5--5--------|

   danced...                                     we're space...
   music...
|---------------------|-----------------------|---------------------|---------------------|
|---------4--5--6--7--|--------7--5-----------|---------4--5--6--7--|---------------------|
|--5--5---------------|--------------7--------|--5--5---------------|--7--7---7--7--5--6--|
|---------------------|--5--5-----------5--8--|---------------------|---------------------|

|-----------------------|-----------------------|-----------------------|-----------------------|
|-----------------------|-----2--1--0-----------|-----2--1--0-----------|-----2--1--0-----------|
|--7--7---7---7--7---7--|--0-----------3--2--1--|--0-----------3--2--1--|--0-----------3--2--1--|
|-----------------------|-----------------------|-----------------------|-----------------------|

|-----------------------|-----------------------|-----------------------|-----------------------|
|-----2--1--0-----------|-----------------------|-----------------------|-----------------------|
|--0-----------3--2--1--|-----2--1--0-----------|-----2--1--0-----------|-----2--1--0-----------|
|-----------------------|--0-----------3--2--1--|--0-----------3--2--1--|--0-----------3--2--1--|

 1________________  2_____________
|-----------------|-----------------|
|----------------*|-----------------|
|----------------*|-----------------|
|--0---1---2---3--|--0---1---2---3--|

|----------------|-----|-----------|--------|
|----------------|-----|-----------|--------|
|---------5---3--|-----|--3-----5--|--------|
|--3--5----------|--5--|-----------|--3--5--|

|----------------|-----|-----------|--------|
|----------------|-----|-----------|--------|
|---------5---3--|-----|--3-----5--|--------|
|--3--5----------|--5--|-----------|--3--5--|

|----------------|-----|-----------|--------|
|----------------|-----|-----------|--------|
|---------5---3--|-----|--3-----5--|--------|
|--3--5----------|--5--|-----------|--3--5--|

|----------------|-----|-----------|--------|
|----------------|-----|-----------|--------|
|---------5---3--|-----|--3-----5--|--------|
|--3--5----------|--5--|-----------|--3--5--|

   dance around...
|--------------------|-----|---------|----------------------------------|
|--------------------|-----|---------|----------------------------------|
|---------1---5---3--|-----|--3---5--|--5h7--7--5h7--7--5h7--7--5h7--7--|
|--3--5--------------|--5--|---------|----------------------------------|

|----------------------------------|------------------------------7/9--|
|----------------------------------|-----------------------------------|
|--5h7--7--5h7--7--5h7--7--5h7--7--|--5h7--7--5h7--7--5h7--7---7-------|
|----------------------------------|-----------------------------------|

|--9--7--------------------|
|--------9--8--7--5--------|
|--------------------7--5--|
|--------------------------|

(coda)
|-----------------| 
|-----------------|
|-----------------|
|--0---1---2---3--|

|------------|-------------|------------|-------------|------------|-------------|------------|-------------|
|------------|-------------|------------|-------------|------------|-------------|------------|-------------|
|------------|-------------|------------|-------------|------------|-------------|------------|-------------|
|--5---3--5--|------3---5--|--5---3--5--|------3---5--|--5---3--5--|------3---5--|--5---3--5--|------3---5--|

|------------|-------------|
|------------|-------------|
|------------|-------------|
|--5---3--5--|------3---5--|

|------------|-------------|------------|-------------|------------|-------------|------------|-------------|
|------------|-------------|------------|-------------|------------|-------------|------------|-------------|
|------------|-------------|------------|-------------|------------|-------------|------------|-------------|
|--5---3--5--|------3---5--|--5---3--5--|------3---5--|--5---3--5--|------3---5--|--5---3--5--|------3---5--|

|------------|-------------|------------|-------------|------------|-------------|------------|-------------|
|------------|-------------|------------|-------------|------------|-------------|------------|-------------|
|------------|-------------|------------|-------------|------------|-------------|------------|-------------|
|--5---3--5--|------3---5--|--5---3--5--|------3---5--|--5---3--5--|------3---5--|--5---3--5--|------3---5--|

|-------------|--------------------------|--------------------------|--------------------------|
|-------------|--------------------------|--------------------------|--------------------------|
|-------------|--7--7--7--7--7--7--5--6--|--7--7--7--7--7--5--6--7--|--7--7--7--7--7--5--6--7--|
|--5---3---5--|--------------------------|--------------------------|--------------------------|

|---------------------7/9--|--9--9--9--9--7--8--9--|--9--9--9--9--9--7--8--9--|
|--------------------------|-----------------------|--------------------------|
|--7--7--7--7--7--5--------|-----------------------|--------------------------|
|--------------------------|-----------------------|--------------------------|

|--9--9--7--7--------------|--------------------------|
|--------------9--9--7--7--|--5--5--------------------|
|--------------------------|--------7--7--5--5--------|
|--------------------------|--------------------7--7--|

|-----------------------|-----------------------|-----------------------|-----------------------|
|-----2--1--0-----------|-----2--1--0-----------|-----2--1--0-----------|-----2--1--0-----------|
|--0-----------3--2--1--|--0-----------3--2--1--|--0-----------3--2--1--|--0-----------3--2--1--|
|-----------------------|-----------------------|-----------------------|-----------------------|

|-----------------------|-----------------------|-----------------------|-----------------------|
|-----2--1--0-----------|-----------------------|-----------------------|-----------------------|
|--0-----------3--2--1--|-----2--1--0-----------|-----2--1--0-----------|-----2--1--0-----------|
|-----------------------|--0-----------3--2--1--|--0-----------3--2--1--|--0-----------3--2--1--|

|-----------------|-----------------------|-----------------------|-----------------------|
|-----------------|-----2--1--0-----------|-----2--1--0-----------|-----2--1--0-----------|
|-----------------|--------------3--2--1--|--------------3--2--1--|--------------3--2--1--|
|--0---1---2---3--|--0--------------------|--0--------------------|--0--------------------|

|-----------------------|-----------------------|-----------------------|-----------------------|
|-----2--1--0-----------|-----------------------|-----------------------|-----------------------|
|--------------3--2--1--|-----2--1--0-----------|-----2--1--0-----------|-----2--1--0-----------|
|--0--------------------|--0-----------3--2--1--|--0-----------3--2--1--|--0-----------3--2--1--|

|-----------------|-----------------------|-----------------------|-----------------------|
|-----------------|-----2--1--0-----------|-----2--1--0-----------|-----2--1--0-----------|
|-----------------|--0-----------3--2--1--|--0-----------3--2--1--|--0-----------3--2--1--|
|--0---1---2---3--|-----------------------|-----------------------|-----------------------|

|-----------------------|-----------------------|-----------------------|-----------------------|
|-----2--1--0-----------|-----------------------|-----------------------|-----------------------|
|--0-----------3--2--1--|-----2--1--0-----------|-----2--1--0-----------|-----2--1--0-----------|
|-----------------------|--0-----------3--2--1--|--0-----------3--2--1--|--0-----------3--2--1--|

|-----------------|-----------------------|-----------------------|-----------------------|-----------------------|
|-----------------|-----2--1--0-----------|-----2--1--0-----------|-----2--1--0-----------|-----2--1--0-----------|
|-----------------|--0-----------3--2--1--|--0-----------3--2--1--|--0-----------3--2--1--|--0-----------3--2--1--|
|--0---1---2---3--|-----------------------|-----------------------|-----------------------|-----------------------|
00:00 / 00:00
Otros videos de esta canción
Repetir
Otros videos de esta canción
Composición de Ian Gillan / Ian Paice / Jon Lord / Ritchie Blackmore / Roger Glover
Colaboración y revisión:
  • valdir júnior
17 vistas

0 comentarios

Ver todos los comentarios

¿Lograste tocar?

0 Tocaron 0 Aún no

¡Graba un video tocando Space Truckin y envíanoslo!

00:00 / 00:00
OK