Cifra Club

Super trouper

Deep Purple

Tab de bajo: Principal
                                               I was a young man...
|--8--9--------7----------------------------|----------------------------------------------|
|--------8--9-----5h6-----------5-----------|------------------------5---------------------|
|----------------------7--6--7--------------|------------7--7--7--7-----7--5--7--7---7--6--|
|----------------------------------6--5--3--|--0---0--0------------------------------------|

   ah                                       I was flash...
|----------------------------------------|----------4---------------------------------|
|------------4--5--7---------------------|-------------7--5---------------------------|
|--5---5--5-----------5--5---------------|-------------------7--7---7--7--7--7--7--7--|
|---------------------------0---0--0--3--|--0---0-------------------------------------|

   ah                                            I gave it all...
|---------------------------------------------|----------9---9--------4-----------------|
|--------------4--5--7--------9---8---7-------|-----------------5--7-----7--5-----------|
|--5--5--5--5-----------5--7--------------10--|--7---7-------------------------7--5--7--|
|---------------------------------------------|-----------------------------------------|

   was so strong                         I felt the truth...
|-------------------------------------|-------------4-------------------------------|
|---------4--5--7------------------5--|----------------7--5-------------------------|
|--5---5-----------5--5--7---7--7-----|--7---7--7------------5--5--7---7--7---7--7--|
|-------------------------------------|---------------------------------------------|

   in every song                               how                  well you
|-------------------------------------------|------------------------------------|
|----------4--5--7--------9---8---7---5-----|-------------4--5--7------9---------|
|--5---5------------5--7-----------------7--|--5---5--5--------------------------|
|-------------------------------------------|-----------------------7-----10--8--|

   know             me                    you've               seen me
|--------------------------------------|------------------------------------|
|-------------------9--7---------------|------------------------------------|
|-------------9--7--------9--7---------|------------------------------------|
|--7---7--7---------------------10--7--|--5---5--5---5--5--3---3--3---3--3--|

   cry                                      I'm                 just a
|----------------------------------------|-----------------------------|
|----------------------2-----------------|-------------2--3--4--5---5--|
|-------------------5-----5--2-----------|--3---3--3-------------------|
|--0---0--0---3--5--------------5--3--0--|-----------------------------|

   shadow...                         rock and roll                   sky
|---------------------------------|----------------------9--7-----|-----------------------------------|
|-------------------7---5---------|---------6---7--8--9--------9--|-----9--9-----9--9-----9--9-----9--|
|-------------5--7----------7--5--|--7---7------------------------|-----------------------------------|
|--5---5--8-----------------------|-------------------------------|--7--------7--------7--------7-----|

|--8--9--------7-----------|--------------------|
|--------8--9-----5--5-----|--------5-----------|
|-----------------------7--|--6--7--------------|
|--------------------------|-----------6--5--3--|

     I was living...                              ah
|------------------------------------------|--------------------------------------|
|--------------------5---------------------|---------4---5--7------------------5--|
|--------7-----7--7-----7--5--7--7---7--7--|--5---5------------5--5--7---7--7-----|
|--0---------------------------------------|--------------------------------------|

       I was a king...                     ah
|----------4---------------------------|----------------------------------------|
|-------------7--5---------------------|---------4--5--7--------9---8---7-------|
|--7---7------------5--7---7--7--7--7--|--5---5-----------5--7--------------10--|
|--------------------------------------|----------------------------------------|

       super trouper...                       making me shine
|------------------------------------------|-------------------------------------|
|----------------------9--7----------------|---------4--5--7------------------5--|
|--7---7--7--7---7--7--------10--7---7--5--|--5---5-----------5--5--7---7--7-----|
|------------------------------------------|-------------------------------------|

      I couldn't see...                    I was so blind
|---------------------------------------|-------------------------------------------|
|---------------------------------------|---------4--5--7--------9---8---7----------|
|--7---7---7---4--5--7--7---7--7--7--7--|--5---5-----------5--7--------------10--7--|
|---------------------------------------|-------------------------------------------|

          how          well...        know             me
|---------7------------------------|-----------------------------4-----------|
|-------------4--5--6--7--4--------|---------4---------7--4---------7--4-----|
|--5---5---------------------7--5--|------------7------------7------------7--|
|----------------------------------|--7---7--------7-------------------------|

   you've...               cry            I am        just...      shadow                   in...
|-----------------------|--------------|------------------------|---------------------------------------|
|-----------------------|--------------|------2---3---4---2-----|---------------7--5-----------5--------|
|-----------------------|--------------|---------------------3--|---------5--7--------7--5--------7--5--|
|--5---5--5---3---3--3--|--0-----3--3--|--3---------------------|--5---8--------------------8-----------|

       rock and..                        sky
|------------------9--7---------------|-----------------------------------|
|------7--7--8--9--------9--7---------|-----9--9-----9--9-----9--9-----9--|
|--7---------------------------10--7--|-----------------------------------|
|-------------------------------------|--7--------7--------7--------7-----|

|--8--9--------7-----------|------------------------|----------------------|--------------------------|
|--------8--9-----5--6-----|--------5---------------|---------4---------4--|---------4----------------|
|-----------------------7--|--6--7------------------|----------------------|-------------------2------|
|--------------------------|-----------6--5--3---0--|--0--2-------0--2-----|--0--2-------0--2------5--|

|----------------------|--------------------------|----------------------|--------------------------|
|---------4---------4--|---------4----------------|---------4---------4--|---------4----------------|
|----------------------|-------------------2------|----------------------|-------------------2------|
|--0--2-------0--2-----|--0--2-------0--2------5--|--0--2-------0--2-----|--0--2-------0--2------5--|

|----------------------|--------------------------|---------------------------------------------|
|---------4---------4--|---------4----------------|---------------------------------------------|
|----------------------|-------------------2------|---------------------------------------------|
|--0--2-------0--2-----|--0--2-------0--2------5--|--7--7--7--7--7--7--7---7--7--7--7--7--7--7--|

                                                    I wanna be like...
|------------------------------------------------|-----------------------------------|
|------------------------------------------------|-------------------5---------------|
|------------------------------------------------|--7---7--7---7--7-----7--5--7---7--|
|--7--7--7--7--7--7--7--7--7--7--7---7--7--7--7--|-----------------------------------|

   ah                                    but this time...
|-------------------------------------|----------4-------------------------------|
|------------4--5--7---------------5--|-------------7--5-------------5--7--5-----|
|--5---5--5-----------5--5--7---7-----|--7---7------------5--7---7------------7--|
|-------------------------------------|------------------------------------------|

   ah                                          I need a home...
|-------------------------------------------|------------9---------7--------------------|
|------------4--5--7--------9---8---7-------|-------------------------9/7--5------------|
|--5---5--5-----------5--7--------------10--|--7---7--7------7--7-------------7---7--6--|
|-------------------------------------------|-------------------------------------------|

   knowing you're there                   super trouper...
|--------------------------------------|--------------9--9-----------------------|
|----------4--5--7---------------5--5--|--------------------9--7-----9--7--5-----|
|--5---5------------5--5--7---7--------|--7---7---7---------------7-----------7--|
|--------------------------------------|-----------------------------------------|

   return your stare                                   how            well you
|--------------------------------------------|---------7---7----------------------|
|----------4--5--7--------9---8---7----------|-----------------5--6------7--------|
|--5---5------------5--7--------------10--7--|--5---5-----------------------5-----|
|--------------------------------------------|------------------------5--------8--|

   know             me                         you've...               cry
|---------------4------------4--------------|-----------------------|------------------------------------------|
|---------4---------7--4--------7--4--------|-----------------------|----------------------------2-------------|
|------------7------------7-----------7--5--|-----------------------|----------------------2--5-----2----------|
|--7---7------------------------------------|--5---5--5---3---3--3--|--0---0--0---3--5--5--------------5--3--0-|

   I'm              just a      shadow...                          a rock and...
|-------------------------5--|----------------------------------|---------------------------------|
|-------------2--3--4--5-----|------------------7---7--5--------|------6---7--9--9--7--6----------|
|--3---3--3------------------|-----------5--7-------------7--5--|--7-----------------------7---7--|
|----------------------------|--5--8--8-------------------------|---------------------------------|

   sky
|-----------------------------------|--8--9--------7------------------------------------|
|-----9--9-----9--9-----9--9--9--9--|--------8--9-----5--6-----------5------------------|
|-----------------------------------|-----------------------7--6--7------------------7--|
|--7--------7--------7--------------|-----------------------------------6--5--3--0------|
00:00 / 00:00
Otros videos de esta canción
Repetir
Otros videos de esta canción
Compositor no encontrado.
Colaboración y revisión:
  • valdir júnior
29 vistas

0 comentarios

Ver todos los comentarios

¿Lograste tocar?

0 Tocaron 0 Aún no

¡Graba un video tocando Super trouper y envíanoslo!

00:00 / 00:00
OK