Cifra Club

Hello America

Def Leppard

Cifrado: Principal (guitarra y guitarra eléctrica)
Selo Cifra Club: esta cifra foi revisada para atender aos critérios oficiais da nossa Equipe de Qualidade.
tono: G
Intro:

   
      | Repeat 3 times  
E|---------------------------------------------------------------------|
B|-2----8---8---8---7---7---7---8---8---8---7---7---7------------------|
G|-2----7---7---7---6---6---6---7---7---7---6---6---6------------------|
D|-2----5---5---5---4---4---4---5---5---5---4---4---4------------------|
A|------5---5---5---4---4---4---5---5---5---4---4---4------------------|
E|---------------------------------------------------------------------|

Right into..........

                                          "Well I'mm gonna take a..."
        Repeat 2 Times                  
E|-2----------------------2----------------------2---------------------|
B|-3---2------------------3---2------------------3---2-----------------|
G|-2---2------------------2---2------------------2---2-----------------|
D|-----2---------0------------2---------0------------2---------0-------|
A|---------3-2-0---3-2-0----------3-2-0---3-2-0----------3-2-0---3-2-0-|
E|---------------------------------------------------------------------|

    "Well I'll tell you what I'm gonna do........."     
        Repeat 2 Times                  
E|---------------------------------------------------------------------|
B|---------------------------------------------------------------------|
G|-1------------------1--1---------------------------------------------|
D|-2--3-0-3-0---------2--2-3-0-3-0-------------------------------------|
A|-2----------3-2-0---2--2--------3-2-0--------------------------------|
E|---------------------------------------------------------------------|

Chorus

   "Hello America..."
        Repeat 2 Times
E|---------------------------------------------------------------------|
B|---8---8---8---7---7---7---8---8---8---7---7---7---------------------|
G|---7---7---7---6---6---6---7---7---7---6---6---6---------------------|
D|---5---5---5---4---4---4---5---5---5---4---4---4---------------------|
A|---5---5---5---4---4---4---5---5---5---4---4---4---------------------|
E|---------------------------------------------------------------------|

                                                        
                                         "I'm gonna take a Greyhound..."
     Repeat 2 Times                     
E|-2----------------------2----------------------2---------------------|
B|-3---2------------------3---2------------------3---2-----------------|
G|-2---2------------------2---2------------------2---2-----------------|
D|-----2---------0------------2---------0------------2---------0-------|
A|---------3-2-0---3-2-0----------3-2-0---3-2-0----------3-2-0---3-2-0-|
E|---------------------------------------------------------------------|

   "We're gonna dance to 12 o' clock......."
     Repeat 2 Times
E|---------------------------------------------------------------------|
B|---------------------------------------------------------------------|
G|-1------------------1--1---------------------------------------------|
D|-2--3-0-3-0---------2--2-3-0-3-0-------------------------------------|
A|-2----------3-2-0---2--2--------3-2-0--------------------------------|
E|---------------------------------------------------------------------|

Chorus   

   "Hello America..."
        Repeat 4 Times
E|---------------------------------------------------------------------|
B|---8---8---8---7---7---7---8---8---8---7---7---7---------------------|
G|---7---7---7---6---6---6---7---7---7---6---6---6---------------------|
D|---5---5---5---4---4---4---5---5---5---4---4---4---------------------|
A|---5---5---5---4---4---4---5---5---5---4---4---4---------------------|
E|---------------------------------------------------------------------|

 Solo backround

    Repeat 2 Times                      
E|-2----------------------2----------------------2---------------------|
B|-3---2------------------3---2------------------3---2-----------------|
G|-2---2------------------2---2------------------2---2-----------------|
D|-----2---------0------------2---------0------------2---------0-------|
A|---------3-2-0---3-2-0----------3-2-0---3-2-0----------3-2-0---3-2-0-|
E|---------------------------------------------------------------------|

     Repeat 2 Times
E|---------------------------------------------------------------------|
B|---------------------------------------------------------------------|
G|-1------------------1--1---------------------------------------------|
D|-2--3-0-3-0---------2--2-3-0-3-0-------------------------------------|
A|-2----------3-2-0---2--2--------3-2-0--------------------------------|
E|---------------------------------------------------------------------|

"Taken me a trip....."

Then:

     Repeat 2 Times
E|---------------------------------------------------------------------|
B|---------------------------------------------------------------------|
G|-1------------------1--1---------------------------------------------|
D|-2--3-0-3-0---------2--2-3-0-3-0-------------------------------------|
A|-2----------3-2-0---2--2--------3-2-0--------------------------------|
E|---------------------------------------------------------------------|

Chorus   

   "Hello America..."
      Repeat 3 Times
E|---------------------------------------------------------------------|
B|---8---8---8---7---7---7---8---8---8---7---7---7---------------------|
G|---7---7---7---6---6---6---7---7---7---6---6---6---------------------|
D|---5---5---5---4---4---4---5---5---5---4---4---4---------------------|
A|---5---5---5---4---4---4---5---5---5---4---4---4---------------------|
E|---------------------------------------------------------------------|
Otros videos de esta canción
    801 exhibiciones
      • ½ Tono
      • A
      • Bb
      • B
      • C
      • Db
      • D
      • Eb
      • E
      • F
      • F#
      • G
      • Ab
    • Agregar a la lista

    Afinación de cifrado

    Afinador online

      OK