Cifra Club

My Own Summer

Deftones

Cifrado: Principal (guitarra y guitarra eléctrica)
Selo Cifra Club: esta cifra foi revisada para atender aos critérios oficiais da nossa Equipe de Qualidade.
tono: E
Afinação: Db  Ab  Db  Gb  Bb  Eb

[Introdução]

E|-----------------------------------------------------|
B|-----------------------------------------------------|
G|-----------------------------------------------------| (4x)
D|-----------------------------------------------------|
A|-----------------------------------------------------|
E|-12-11-12-0-11\8---0-8-0-8\7---0-8-5---5-------------|


[Primeira Estrofe]

E|-----------------------------------------------------|
B|-----------------------------------------------------|
G|-----------------------------------------------------| (4x)
D|-----------------------------------------------------|
A|-----------------------------------------------------|
E|-12-11-12-0-11\8---0-8-0-8\7---0-8-5---5-------------|

Hey you
Big star
Tell me
When it's over (cloud)


[Passagem]

E|-----------------------------------------------------|
B|-----------------------------------------------------|
G|-----------------------------------------------------| (4x)
D|-0-7-8-0-8\5---0-5-0-5-7-0-8-4---4-------------------|
A|-0-7-8-0-8\5---0-5-0-5-7-0-8-4---4-------------------|
E|-0-7-8-0-8\5---0-5-0-5-7-0-8-4---4-------------------|


[Segunda Estrofe]

E|-----------------------------------------------------|
B|-----------------------------------------------------|
G|-----------------------------------------------------| (8x)
D|-----------------------------------------------------|
A|-----------------------------------------------------|
E|-12-11-12-0-11\8---0-8-0-8\7---0-8-5---5-------------|

Hey you
Big mood
Guide me
To shelter
'Cause I'm through
When the two
Hits the six
And it's summer (cloud)


[Pré-Refrão]

E|-----------------------------------------------------|
B|-----------------------------------------------------|
G|-----------------------------------------------------| (4x)
D|-0-7-8-0-8\5---0-5-0-5-7-0-8-4---4-------------------|
A|-0-7-8-0-8\5---0-5-0-5-7-0-8-4---4-------------------|
E|-0-7-8-0-8\5---0-5-0-5-7-0-8-4---4-------------------|

Come (shove it, shove it, shove it)
Shove (shove it, shove it, shove it)
The Sun (shove it, shove it, shove it)
Aside (shove it aside)


[Refrão]

E|-----------------------------------------------------|
B|-----------------------------------------------------|
G|-9-9-9-9-9-9-9-9-9-9-9-9-9-9-9-9---------------------|
D|-8-8-8-8-8-8-8-8-8-8-8-8-8-8-8-8---------------------|
A|-8-8-8-8-8-8-8-8-8-8-8-8-8-8-8-8---------------------|
E|-8-8-8-8-8-8-8-8-8-8-8-8-8-8-8-8---------------------|

E|-----------------------------------------------------|
B|-----------------------------------------------------|
G|-9-9-9-9-9-9-9-9-9-9-9-9-9-9-9-9---------------------|
D|-8-8-8-8-8-8-8-8-8-8-8-8-8-8-8-8---------------------|
A|-8-8-8-8-8-8-8-8-8-8-8-8-8-8-8-8---------------------|
E|-8-8-8-8-8-8-8-8-8-8-8-8-8-8-8-8---------------------|

E|-----------------------------------------------------|
B|-----------------------------------------------------|
G|-----------------------------------------------------|
D|-5-5-5-8-0---5-5-5-8-8-0-0---------------------------|
A|-5-5-5-8-0---5-5-5-8-8-0-0---------------------------|
E|-5-5-5-8-0---5-5-5-8-8-0-0---------------------------|

E|-----------------------------------------------------|
B|-----------------------------------------------------|
G|-9-9-9-9-9-9-9-9-9-9-9-9-9-9-9-9---------------------|
D|-8-8-8-8-8-8-8-8-8-8-8-8-8-8-8-8---------------------|
A|-8-8-8-8-8-8-8-8-8-8-8-8-8-8-8-8---------------------|
E|-8-8-8-8-8-8-8-8-8-8-8-8-8-8-8-8---------------------|

E|-----------------------------------------------------|
B|-----------------------------------------------------|
G|-9-9-9-9-9-9-9-9-9-9-9-9-9-9-9-9---------------------|
D|-8-8-8-8-8-8-8-8-8-8-8-8-8-8-8-8---------------------|
A|-8-8-8-8-8-8-8-8-8-8-8-8-8-8-8-8---------------------|
E|-8-8-8-8-8-8-8-8-8-8-8-8-8-8-8-8---------------------|

E|-----------------------------------------------------|
B|-----------------------------------------------------|
G|-----------------------------------------------------|
D|-5-5-5-8-0---5-5-5-8-8-0-0---------------------------|
A|-5-5-5-8-0---5-5-5-8-8-0-0---------------------------|
E|-5-5-5-8-0---5-5-5-8-8-0-0---------------------------|

I think God 
Is moving 
It's tongue
There's no crowds in the street 
And no Sun


[Terceira Estrofe]

The shade
Is a tool
A device
A savior
See, I try
And look up
To the sky
But my eyes burn (cloud)


[Pré-Refrão]

E|-----------------------------------------------------|
B|-----------------------------------------------------|
G|-----------------------------------------------------| (8x)
D|-0-7-8-0-8\5---0-5-0-5-7-0-8-4---4-------------------|
A|-0-7-8-0-8\5---0-5-0-5-7-0-8-4---4-------------------|
E|-0-7-8-0-8\5---0-5-0-5-7-0-8-4---4-------------------|

Come (shove it, shove it, shove it)
Shove (shove it, shove it, shove it)
The Sun (shove it, shove it, shove it)
Aside (shove it aside)

Come (shove it, shove it, shove it)
Shove (shove it, shove it, shove it)
The Sun (shove it, shove it, shove it)
Aside (shove it aside)


[Refrão]

E|-----------------------------------------------------|
B|-----------------------------------------------------|
G|-9-9-9-9-9-9-9-9-9-9-9-9-9-9-9-9---------------------|
D|-8-8-8-8-8-8-8-8-8-8-8-8-8-8-8-8---------------------|
A|-8-8-8-8-8-8-8-8-8-8-8-8-8-8-8-8---------------------|
E|-8-8-8-8-8-8-8-8-8-8-8-8-8-8-8-8---------------------|

E|-----------------------------------------------------|
B|-----------------------------------------------------|
G|-9-9-9-9-9-9-9-9-9-9-9-9-9-9-9-9---------------------|
D|-8-8-8-8-8-8-8-8-8-8-8-8-8-8-8-8---------------------|
A|-8-8-8-8-8-8-8-8-8-8-8-8-8-8-8-8---------------------|
E|-8-8-8-8-8-8-8-8-8-8-8-8-8-8-8-8---------------------|

E|-----------------------------------------------------|
B|-----------------------------------------------------|
G|-----------------------------------------------------|
D|-5-5-5-8-0---5-5-5-8-8-0-0---------------------------|
A|-5-5-5-8-0---5-5-5-8-8-0-0---------------------------|
E|-5-5-5-8-0---5-5-5-8-8-0-0---------------------------|

E|-----------------------------------------------------|
B|-----------------------------------------------------|
G|-9-9-9-9-9-9-9-9-9-9-9-9-9-9-9-9---------------------|
D|-8-8-8-8-8-8-8-8-8-8-8-8-8-8-8-8---------------------|
A|-8-8-8-8-8-8-8-8-8-8-8-8-8-8-8-8---------------------|
E|-8-8-8-8-8-8-8-8-8-8-8-8-8-8-8-8---------------------|

E|-----------------------------------------------------|
B|-----------------------------------------------------|
G|-9-9-9-9-9-9-9-9-9-9-9-9-9-9-9-9---------------------|
D|-8-8-8-8-8-8-8-8-8-8-8-8-8-8-8-8---------------------|
A|-8-8-8-8-8-8-8-8-8-8-8-8-8-8-8-8---------------------|
E|-8-8-8-8-8-8-8-8-8-8-8-8-8-8-8-8---------------------|

E|-----------------------------------------------------|
B|-----------------------------------------------------|
G|-----------------------------------------------------| (4x)
D|-5-5-5-8-0---5-5-5-8-8-0-0---------------------------|
A|-5-5-5-8-0---5-5-5-8-8-0-0---------------------------|
E|-5-5-5-8-0---5-5-5-8-8-0-0---------------------------|

I think God 
Is moving 
It's tongue

There's no crowd in the street 
And no Sun
In my own summer


[Final]

E|-----------------------------------------------------|
B|-----------------------------------------------------|
G|-----------------------------------------------------| (4x)
D|-0-7-8-0-8\5---0-5-0-5-7-0-8-4---4-------------------|
A|-0-7-8-0-8\5---0-5-0-5-7-0-8-4---4-------------------|
E|-0-7-8-0-8\5---0-5-0-5-7-0-8-4---4-------------------|

Come (shove it, shove it, shove it)
Shove (shove it, shove it, shove it)
The Sun (shove it, shove it, shove it)
Aside (shove it aside)
Otros videos de esta canción
    9.582 exhibiciones
      • ½ Tono
      • A
      • Bb
      • B
      • C
      • Db
      • D
      • Eb
      • E
      • F
      • F#
      • G
      • Ab
    • Agregar a la lista

    Afinação da cifra

    Afinador online

      Capítulos
      • Tocando a Música
      • Apresentação / Equipamentos
      • Afinação
      • Tocando Introdução
      • Ensinando Riff 1
      • Tocando Primeira Estrofe - Pré-Refrão
      • Ensinando Riff 2
      • Tocando Refrão
      • Ensinando Refrão
      • Encerramento
      Ops (: Contenido disponible solo en portugués.
      OK