Cifra Club

Rickets

Deftones

Cifrado: Principal (guitarra y guitarra eléctrica)
Selo Cifra Club: esta cifra foi revisada para atender aos critérios oficiais da nossa Equipe de Qualidade.
tono: D
Intro:

E|-------------------------------|
B|-------------------------------|
G|-------------------------------|
D|--3-2-0-3-2-0-3-0-6-6-6-1-1-1--|
A|--3-2-0-3-2-0-3-0-6-6-6-1-1-1--|
D|--3-2-0-3-2-0-3-0-6-6-6-1-1-1--|
  
Verso: 

E|---------------------|
B|---------------------|
G|---------------------|
D|--2-0-0-2-0-0-2-0-0--|
A|--2-0-0-2-0-0-2-0-0--|
D|--2-0-0-2-0-0-2-0-0--|
  
Breakdown:

E|-----------------------------|
B|-----------------------------|
G|--8-----8-----8---6-6-6-6-6--|
D|--8-0-0-8-0-0-8-0-6-6-6-6-6--|
A|--6-0-0-6-0-0-6-0-4-4-4-4-4--|
D|----0-0---0-0---0------------| 
Otros videos de esta canción
    29 exhibiciones
      • ½ Tono
      • A
      • Bb
      • B
      • C
      • Db
      • D
      • Eb
      • E
      • F
      • F#
      • G
      • Ab
    • Agregar a la lista

    Afinação da cifra

    Afinador online

      Ops (: Contenido disponible solo en portugués.
      OK