Cifra Club

Put It Like That

Ilse DeLange

Cifrado: Principal (guitarra y guitarra eléctrica)
tono: F# (con acordes en la forma de D) Capotraste en 4ª casa
(capo on 4th...) 
  
  
   INTRO (2x) 
E |------------------------|---------------------4-| 
B |--------7---------7--7--|--------7---4~6--6~7---| 
G |------6-------(6)-4--4--|------4----------------| 
D |----4--------(4)--4--4--|----6------------------| 
A |------------------------|--4-----4--4----4------| 
E |-----------------7--7---|-----------------------| 
  
  
 D       G            A 
It's been a long week and I've had a lot of time 
           D       G  -  A7  
to think about you.          
 D     G               A 
So sure that I'm right in thinking I'll be more 
              D       G  -  A7 
then fine without you. 
  
 
 G                    D         Em              D    A7 
Here you are with a guilty grin knocking at my door again. 
 A#                  F                  G                D 
We both know you're gonna win when I'm in those arms of yours. 
  
 A7  D        Em7                   G 
Ohh, I can't turn my back when you put it like that, 
 A7               D             Em7      
put it like that. Right here in front of me. 
 F                D    A7  D        Em7 
Is all I'll ever need. And when you touch me like that, 
 G                   A7 
hold me like that, love me like that. 
 Bm      A           G             A7          D - G - A7 
Forever sure sounds good, when you put it like that. 
  
 D      G                 A 
So much for being strong, my mind's set,  
                            D       G  -  A7 
but my heart's too gone to save me. 
 D                G        
I'd like to think, I gotta choice 
 A                                     D       G  -  A7 
and deep down that little voice don't phase me. 
  
 G                D           Em            D       A7 
When I see you standing here, everything is crystal clear 
 A#                     F                     G                D  
and all my doubts just disappear. when you're holding me like this, 
  
 A7  D        Em7                   G 
Ooh, I can't turn my back when you put it like that, 
 A7              D             Em7 
put it like that right here in front of me. 
    F                  G    A7    D       Em7 
Is all I'll ever need. Oohh, and when you touch me like that, 
 G                   A7              
hold me like that, love me like that. 
 Bm      A7          G             A7            D  -  Em7  -  G  -  A7 
 Forever sure sounds good, when you put it like that. 
  
   SOLO 
E |------------------------|-----------------------|-----------------------| 
B |------------7-7----7-7--|---------7-11~9~7-7~11-|----11~7---------------| 
G |----------------10------|-10-8-10---------------|------------10--8--6---| 
D |------------------------|-----------------------|-----------------------| 
A |------------------------|-----------------------|-----------------------| 
E |------------------------|-----------------------|-----------------------| 
  
E |------------------------|-----------------------|-----------------------| 
B |------------------------|---------7-7-7---9-7---|----------7~9-11~9-9-9-| 
G |-~8~8~8-6---------------|-----------------------|-10-8-8~10-------------| 
D |----------8-8-----------|-----------------------|-----------------------| 
A |---------------11-9~11--|-----------------------|-----------------------| 
E |------------------------|-----------------------|-----------------------| 
  
E |------------------------|-----------------------| 
B |-14-14-14~11-11-14-14~7-|--9~11-11~9~7~9~7-6~4--| 
G |-15-15-15-------15-15---|-----------------------| 
D |------------------------|-----------------------| 
A |------------------------|-----------------------| 
E |------------------------|-----------------------| 
  
 G                D           Em               D     A7 
When I see you standing here, everything is chrystal clear 
 A#                     F                     G                D 
and all my doubts just disappear. when you're holding me like this, 
  
 A7  D        Em7                   G 
Ohh, I can't turn my back when you put it like that,  
 A7               D             Em7 
put it like that. right here in front of me. 
    F             D    A7        D        Em7 
Is all I'll ever need. Oohh, and when you touch me like that, 
 G                   A7 
hold me like that, love me like that. 
 Bm      A7          G              A7           D-Em7-G-A7(repeat, end with D...) 
Forever sure sounds good, when you put it like that. (4x + whisper)
00:00 / 00:00
Otros videos de esta canción
Repetir
Otros videos de esta canción
Composición de Carolyn Dawn Johnson
48 vistas
    • ½ Tono
    • A
    • Bb
    • B
    • C
    • Db
    • D
    • Eb
    • E
    • F
    • F#
    • G
    • Ab
  • Agregar a la lista

    0 comentarios

    Ver todos los comentarios

    ¿Lograste tocar?

    0 Tocaron 0 Aún no

    ¡Graba un video tocando Put It Like That y envíanoslo!

    00:00 / 00:00
    OK