Cifra Club

Escape (instrumental)

Delirium

Cifrado: Principal (guitarra y guitarra eléctrica)
tono: Dm
Riff 1
              Dm
E|----------0--1-----------0--1--3--1--0--|
B|-------3-----3--------3-----------------|
G|----2--------2-----2--------------------|
D|-0-----------0--0-----------------------| SE D PITE 7 VECES
A|----------------------------------------|
E|----------------------------------------|



Riff 2

E|---0-------------0--------|
B|---3---3---------3---3----|
G|---2---2---------2---2----|
D|-------0-------------0----|
A|--------------------------|
E|--------------------------|



Se repite el Riff 1 (4 Veces)



Riff3

E|---5---------------------------------------------|
B|---6---------------------------------------------|
G|---7---------------------------------------------| GUITARRA 1
D|-------------------------------------------------|
A|-------------------------------------------------|
E|-------------------------------------------------|

Riff3b
E|-------------------------------------------------|
B|-------------------------------------------------|
G|-------------------------------------------------| GUITARRA 2
D|--0--0--0--0--0--0--0--0--0--0--0--0--0--0--0--0-|
A|-10-10-10-10-10-10-10-10-10-10-10-10-10-10-10-10-|
E|-------------------------------------------------|

Riff3 (cont)
E|---7---------------------------------------------|
B|---8---------------------------------------------|
G|---9---------------------------------------------|
D|-------------------------------------------------| GUITARRA 1
A|-------------------------------------------------|
E|-------------------------------------------------|

Riff3b (cont)
E|-------------------------------------------------|
B|-------------------------------------------------|
G|-------------------------------------------------|
D|--0--0--0--0--0--0--0--0--0--0--0--0--0--0--0--0-| GUITARRA 2
A|-10-10-10-10-10-10-10-10-10-10-10-10-10-10-10-10-|
E|-------------------------------------------------|

Se repite el Riff3 tres veces

Se repite el Riff2


Riff4

E|----------0--1-----------0--1--3--1--0--|
B|-------3-----3--------3-----------------|
G|----2--------2-----2--------------------|
D|-0-----------0--0-----------------------| GUITARRA 1
A|----------------------------------------|
E|----------------------------------------|


Riff4b

E|--6--------5----------------------------|
B|-----------------6-----6/8-------8/6----|
G|----------------------------------------|
D|----------------------------------------| GUITARRA 2
A|----------------------------------------|
E|----------------------------------------|
Riff4
E|----------0--1-----------0--1--3--1--0--|
B|-------3-----3--------3-----------------|
G|----2--------2-----2--------------------|
D|-0-----------0--0-----------------------| GUITARRA 1
A|----------------------------------------|
E|----------------------------------------|

E|--6--------5----------------------------|
B|-----------------6-------6/3------------|
G|----------------------------------------| GUITARRA 2
D|----------------------------------------|
A|----------------------------------------|
E|----------------------------------------|


Se repiten los riff4 y 4b solo que al final de 4b en vez de 6(2da)
y el slide se sostiene la nota en 5(1ra)


Riff5
E|----------------------------------------|
B|----------------------------------------|
G|--2/3----------------2/3----------------|
D|--2/3----------------2/3----------------| GUIT 1
A|----------------------------------------|
E|----------------------------------------|

Riff5b
E|---5~~~~~~~~~~~~~~~~~~~~~~~~~~~~~~~/0---|
B|----------------------------------------|
G|----------------------------------------|
D|----------------------------------------| GUIT 2
A|----------------------------------------|
E|----------------------------------------|

Riff5 (cont)
E|----------------------------------------|
B|----------------------------------------|
G|----------------------------------------|
D|------3--2--------------3--2-----0------| GUIT 1
A|------------3--1--------------3---------|
E|----------------------------------------|

Riff5b [Cont]       Entra con distorcion
E|----------------------------------------|
B|----------------------------------------|
G|----------------------------------------|
D|---------------------------------8------| GUIT 2
A|---------------------------------8------|
E|---------------------------------6------|

 Riff5 (cont)
E|----------------------------------------|
B|----------------------------------------|
G|----------------------------------------|
D|---3---2--------------------------------| GUIT 1
A|-----------3---1------------------------|
E|----------------------------------------|

  Riff5b (cont)  A#5
E|----------------------------------------|
B|----------------------------------------|
G|----------------------------------------|
D|---------------8--8--8--8--8--8--8--8---| GUIT 2
A|---------------8--8--8--8--8--8--8--8---|
E|---------------6--6--6--6--6--6--6--6---|

 Riff5 (cont)
E|----------------------------------------|
B|----------------------------------------|
G|----------------------------------------|
D|---3---2-------0------------------------| GUIT 1
A|-----------3----------------------------|
E|----------------------------------------|

Riff5b (cont)
E|----------------------------------------|
B|----------------------------------------|
G|---------------7--7--7--7--7--7--7--7---|
D|---------------7--7--7--7--7--7--7--7---| GUIT 2
A|---------------5--5--5--5--5--5--5--5---|
E|----------------------------------------|

Se repite el Riff3


Riff4
E|----------0--1-----------0--1--3--1--0--|
B|-------3-----3--------3-----------------|
G|----2--------2-----2--------------------|
D|-0-----------0--0-----------------------| GUIT 1
A|----------------------------------------|
E|----------------------------------------|

Riff4b
E|--6--------5----------------------------|
B|-----------------6-----6/8-------8/6----|
G|----------------------------------------|
D|----------------------------------------| GUIT 2
A|----------------------------------------|
E|----------------------------------------|

Riff4 (cont)
E|----------0--1-----------0--1--3--1--0--|
B|-------3-----3--------3-----------------|
G|----2--------2-----2--------------------|
D|-0-----------0--0-----------------------| GUIT 1
A|----------------------------------------|
E|----------------------------------------|

Riff4b (cont)
E|--6--------5----------------------------|
B|-----------------6-------6/3------------|
G|----------------------------------------|
D|----------------------------------------| GUIT 2
A|----------------------------------------|
E|----------------------------------------|

Riff4
E|----------0--1-----------0--1--3--1--0--|
B|-------3-----3--------3-----------------|
G|----2--------2-----2--------------------|
D|-0-----------0--0-----------------------| GUIT 1
A|----------------------------------------|
E|----------------------------------------|

Riff4b
E|--6--------5----------------------------|
B|-----------------6-----6/8-------8/6----|
G|----------------------------------------|
D|----------------------------------------| GUIT 2
A|----------------------------------------|
E|----------------------------------------|

Riff4 (cont)
E|----------0--1-----------0--1--3--1--0--------|
B|-------3-----3--------3-----------------1--1h3|
G|----2--------2-----2--------------------------|
D|-0-----------0--0-----------------------------| GUIT 1
A|----------------------------------------------|
E|----------------------------------------------|

Riff4b (cont)
E|--6--------5----------------------------------|
B|-----------------5~~~~~~~~~~~~~~~~~~~~~~~~----|
G|----------------------------------------------|
D|----------------------------------------------| GUIT 2
A|----------------------------------------------|
E|----------------------------------------------|
00:00 / 00:00
Otros videos de esta canción
Repetir
Otros videos de esta canción
Composición de Delirium
1 exhibiciones
    • ½ Tono
    • Am
    • Bbm
    • Bm
    • Cm
    • C#m
    • Dm
    • Ebm
    • Em
    • Fm
    • F#m
    • Gm
    • G#m
  • Agregar a la lista
    00:00 / 00:00
    OK