Cifra Club

Aprenda

Apague El Sol Solo

Delux

Tab de bajo: Principal
Ps la neta no se si este bn pero suena chido.....

Intro (x2)

G||-------------------------------------||
D||-------------------------------------||
A||----------55555555-22222222-33333333-||
E||-33333333----------------------------||

Verso (x8)

G||-----------------------------||
D||-----------------------------||
A||--------555555-222222-333333-||
E||-333333----------------------||

Verso 2 (x1)

G||------------------------------------|------------------------------||
D||------------------------------------|------------------------------||
A||---------55555555-33333333-55555555-|----------55555555-3-3-3----5-||
E||-3333333----------------------------|-33333333---------------------||

Coro (x1)

G||-------------------------------------|
D||-------------------------------------|
A||----------55555555-22222222-33333333-|
E||-33333333----------------------------|

G||-----------------------------------||
D||-----------------------------------||
A||----------55555555-22222222-3-3-3--||
E||-33333333--------------------------||

Verso (x8)

G||-----------------------------||
D||-----------------------------||
A||--------555555-222222-333333-||
E||-333333----------------------||

Verso 2 (x1)

G||------------------------------------|------------------------------||
D||------------------------------------|------------------------------||
A||---------55555555-33333333-55555555-|----------55555555-3-3-3----5-||
E||-3333333----------------------------|-33333333---------------------||

Coro (x1)

G||-------------------------------------|
D||-------------------------------------|
A||----------55555555-22222222-33333333-|
E||-33333333----------------------------|

G||-------------------------------------||
D||-------------------------------------||
A||----------55555555-22222222-33333333-||
E||-33333333----------------------------||

Puente

Parte 1 (x2)

G||-------------------||
D||-------------------||
A||------5----2----3--||
E||-3-----------------||

Parte 2 (x2)

G||-7-5-4-5-4---------44444444-5555555-||
D||-----------5------------------------||
A||------------------------------------||
E||------------------------------------||

Coro (x1)

G||-------------------------------------|
D||-------------------------------------|
A||----------55555555-22222222-33333333-|
E||-33333333----------------------------|

G||-----------------------------------||
D||-----------------------------------||
A||----------55555555-22222222-3-3-3--||
E||-33333333--------------------------||

Ps esta rola de nuevo esta dedicada a la chava que ahorita tiene mi corazon 
cuando me das el si....T_T
Composição de Serena Radaelli
20 reproducciones

0 comentarios

Ver todos os comentários

¿Conseguiste tocar?

0 Tocaram 0 Ainda não

Grave um vídeo tocando Apague El Sol Solo e nos envie!

00:00 / 00:00
outros vídeos desta música
repetir qualidade Automático
Outros vídeos desta música
00:00 / 00:00
Automático
OK