Cifra Club

Aprenda

Mas De Lo Que Te Imaginas

Delux

Tab de bajo: Principal
He checado varias tablas de esta cancion y todas tienen el intro mal y pues lo demas 
facil, ahi les va (escuchen la cancion para ver el tiempo).

Intro x:2
G|------------------------------|
D|------------------------------|
A|--33--------------------------|
E|------55--5-3-11--1-3-55--3~--|

Verso x:2
G|----------------------------------------|
D|----------------------------------------|
A|--33333333------------------------------|
E|-----------555555555-11111111-33333333--|

Coro x:2
G|---------------------------------|
D|---------------------------------|
A|--5------------------------------|
E|-----7--7/12--11111111-33333333--|

Verso x:2
G|----------------------------------------|
D|----------------------------------------|
A|--33333333------------------------------|
E|-----------555555555-11111111-33333333--|

Coro x:2
G|---------------------------------|
D|---------------------------------|
A|--5------------------------------|
E|-----7--7/12--11111111-33333333--|

Solo 1 x:2
G|---------------------------------------|
D|---------------------------------------|
A|--77777777-99999999--------------------|
E|--------------------55555555-77777777--|

Verso
G|----------------------------------------|
D|----------------------------------------|
A|--33333333------------------------------|
E|-----------555555555-11111111-33333333--|

G|----------------------------------------|
D|----------------------------------------|
A|--33333333------------------------------|
E|-----------555555555-11111111-3~--------|

Coro x:2
G|---------------------------------------|
D|---------------------------------------|
A|--77777777-99999999--------------------|
E|--------------------55555555-77777777--|

Solo/Outro x:2
G|-----------------------------------------|
D|-----------------------------------------|
A|--77777777-99999999----------------------|
E|--------------------55555555-77777777-7~-|

Hay lo tienen, esta facil y la cancion esta chida, lleguenle.
24 reproducciones

0 comentarios

Mostrar mais comentários

¿Conseguiste tocar?

0 Tocaron 0 Ainda não

Grave um vídeo tocando Mas De Lo Que Te Imaginas e mande pra gente!

00:00 / 00:00
outros vídeos desta música
repetir qualidade Automático
Outros vídeos desta música
00:00 / 00:00
Automático

Cifra Club Pro

Aproveite o Cifra Club com benefícios exclusivos e sem anúncios
7 dias grátis
Cifra Club Pro
Aproveite o Cifra Club com benefícios exclusivos e sem anúncios
7 dias grátis
OK