Cifra Club

Aprenda

Regresame Yo Pense

Delux

Tablatura: Principal (guitarra)
Tom: G
Yo pensé.                 q esta era mi lugar..
1--------------------|-------------------------------|
2--------------------|-------------------------------|
3--------------------|-------------------------------|
4----5/7-7-7-7-7-----|-7/9-9-9-9-9-------------------| (ambas guitarras)
5----5/7-7-7-7-7-----|-7/9-9-9-9-9-------------------|
6----3/5-5-5-5-5-----|-5/7-7-7-7-7-------------------|

No entiendo el sufrimiento…..

1---------------------------------------------------|
2---------------------------------------------------|
3---------------------------------------------------|
4-2-2-2-2-2-2-2-2-2-2-2-2-2-2-2-2-2-2---------------| (guitarra 1 )
5-2-2-2-2-2-2-2-2-2-2-2-2-2-2-2-2-2-2---------------|
6-0-0-0-0-0-0-0-0-0-0-0-0-0-0-0-0-0-0---------------|

1-------------------------------------------------------|
2-------------------------------------------------------|
3----9------11---------13------------15-----------------|
4----x-------x----------x--------------x----------------| ( guitarra 2 )
5----7-------9---------11-------------13----------------|
6-------------------------------------------------------|

1--------------------|-------------------------------|
2--------------------|-------------------------------|
3--------------------|-------------------------------|
4----5/7-7-7-7-7-----|-7/9-9-9-9-9-------------------| ( guitarra 1 )
5----5/7-7-7-7-7-----|-7/9-9-9-9-9-------------------|
6----3/5-5-5-5-5-----|-5/7-7-7-7-7-------------------|


1--------------------------------------------------|
2--------------------------------------------------|
3-5/7-7-7-7-7---7/9-9-9-9-9-9----------------------|
4-x/x-x-x-x-x---7/x-x-x-x-x-x----------------------| ( guitarra 2 )
5-3/5-5-5-5-5---5/7-7-7-7-7-7----------------------|
6--------------------------------------------------|


1---------------------------------------------------|
2---------------------------------------------------|
3---------------------------------------------------|
4-2-2-2-2-2-2-2-2-2-2-2-2-2-2-2-2-2-2---------------| (guitarra 1 )
5-2-2-2-2-2-2-2-2-2-2-2-2-2-2-2-2-2-2---------------|
6-0-0-0-0-0-0-0-0-0-0-0-0-0-0-0-0-0-0---------------|

1-------------------------------------------------------|
2-------------------------------------------------------|
3----9------11---------13------------15-----------------|
4----x-------x----------x--------------x----------------| ( guitarra 2 )
5----7-------9---------11-------------13----------------|
6-------------------------------------------------------|

1--------------------------------------------------------|
2--------------------------------------------------------|
3--------- (9) ------------------------------------------|
4----------(x) ----dejalo sonaaR-------------------------|
5--------- (7) ------------------------------------------|
6--------------------------------------------------------|

bajeo-

Coro
 Regresame…..
1----------------------------------------------------------------|
2----------------------------------------------------------------|
3----------------------------------------------------------------|
4-2---------6---------11-----------8--------------------| 2 vecez
5-2---------6---------11-----------8-----------------------------|
6-0---------4----------9-----------6-----------------------------|

te soñe cn una vida normal----

1--------------------------------------------------------|
2--------------------------------------------------------|
3----9------11---------13------------15------------------|
4----x-------x----------x--------------x-----------------|
5----7-------9---------11-------------13-----------------|
6--------------------------------------------------------|
……..p.m……………..p.m……………………

nO pense que me fuera a traicionar…
1----------------------------------------------------------------------------|
2----------------------------------------------------------------------------|
3----------------------------------------------------------------------------|
4-2------------------6--------------------4---------4--------4-------4-------|
5-2------------------6--------------------4---------4--------4-------4-------|
6-0------------------4--------------------2---------2--------2-------2-------|
………….p.m…………….p.m……………………………………………………….p.m..................pm...........

1-------------------------------------------------------|
2-------------------------------------------------------|
3--------- (9) -----------------------------------------|
4----------(x) -----------------------------------------|
5--------- (7) -----------------------------------------|
6-------------------------------------------------------|


Coro

1----------------------------------------------------------------|
2----------------------------------------------------------------|
3----------------------------------------------------------------|
4-2---------6---------11-----------8--------------------| 2 vecez
5-2---------6---------11-----------8-----------------------------|
6-0---------4----------9-----------6-----------------------------|


Bajeo-

1----------------------------------------------------------------------------|
2----------------------------------------------------------------------------|
3----------------------------------------------------------------------------|
4----/////////////////////////////////---------------------------------------|///////////////////-(slides
5-------------------------------/////////////---------------///////////////--|
6---------------------------------------------------//-----------------------|

                  Puenteee --------------------------------------------------|
1----------------------------------------------------------------------------|
2----------------------------------------------------------------------------|
3----------------------------------------------------------------------------|
4-2------------------6--------------------4---------4--------4-------4-------|
5-2------------------6--------------------4---------4--------4-------4-------|
6-0------------------4--------------------2---------2--------2-------2-------|

Solo-

1------------------------------------------------------------------------------|
2-15-15-15-13----------------------15-15-15-13---------------------------------|
3------------15--13--15-13--15-13---^^^^^^^^^^^15--13--15--13--15-13--------4--|
5------------------------------------------------------------------------------|
6------------------------------------------------------------------------------|

1---------------------------------------------------------------------------|
2-17-15-14--17-15-14--17-15-14--17-15-14-17-15-14-17-15-14-17-15------------|
3---------------------------------------------------------------------------|
4---------------------------------------------------------------------------|
5---------------------------------------------------------------------------|
6---------------------------------------------------------------------------|

1----------------------------------------------------------------------------|
2-17-14-17-14-17-14-17-14-17-14-17-14-17-14-17-14-15^--15^-------------------|
3----------------------------------------------------------------------------|
4----------------------------------------------------------------------------|
5----------------------------------------------------------------------------|
6----------------------------------------------------------------------------|


Coro

1----------------------------------------------------------------|
2----------------------------------------------------------------|
3----------------------------------------------------------------|
4-2---------6---------11-----------8--------------------| 2 vecez
5-2---------6---------11-----------8-----------------------------|
6-0---------4----------9-----------6-----------------------------|


Outro-

1----------------------------------------------------------------------------|
2----------------------------------------------------------------------------|
3----------------------------------------------------------------------------|
4----------2-----------------------------------------------------------------|
5----------2------- (la guitarra 1 solo toka ese power chord-----------------|
6----------0------- durante el outro)----------------------------------------|

1---------------------------------------------------------------------------|
2---------------------------------------------------------------------------|
3----------------9----------------------------------------------------------|
4----------------x--------(la guitarra 2 toka este)-------------------------|
5----------------7----------------------------------------------------------|
6---------------------------------------------------------------------------|
ai sta la rola a mi parecer esta correctaa si acaso unos detalles en el solo pro lo 
creo que sta 95% bien ……..


 Dudas, comentarios :  *

RATE it please.…
7 reproducciones
    • ½ Tom
    • A
    • Bb
    • B
    • C
    • Db
    • D
    • Eb
    • E
    • F
    • F#
    • G
    • Ab
  • Adicionar à lista

    0 comentarios

    Mostrar mais comentários

    ¿Conseguiste tocar?

    0 Tocaron 0 Ainda não

    Grave um vídeo tocando Regresame Yo Pense e mande pra gente!

    00:00 / 00:00
    outros vídeos desta música
    repetir qualidade Automático
    Outros vídeos desta música
    00:00 / 00:00
    Automático

    Cifra Club Pro

    Aproveite o Cifra Club com benefícios exclusivos e sem anúncios
    7 dias grátis
    Cifra Club Pro
    Aproveite o Cifra Club com benefícios exclusivos e sem anúncios
    7 dias grátis
    OK