Cifra Club

Aprenda

Brand New Day

Demi Lovato

Tablatura: Principal (guitarra)
tono: D
Intro:
      D9                G                 Bm                A9
E|---------0-------------------3------------------2---------------0------------|
B|-----3-------3-----------3------3----------3-------3--------2------2---------|
G|---2-----------2-------0---------0-------4----------4------2--------2--------|
D|-0-----0---0-----------------------------------------------------------------|
A|----------------------------------------2----2----2-------0---0--0-----------|
E|---------------------3-----3--3----------------------------------------------|

Oh oh

D9                G
Last year is old news
             Bm
I'm breakin' out my six string
                    A9
And playin' from my heart
       D9     G
Its not deja vu
           Bm
Cause its another summer
                           A
That's how this chapter sta-a-arts
E|-------------------------|------------------------|
B|-------------------------|------------------------|
G|-------------------------|------------------------|
D|-------------------------|------------------------|
A|-2/5-5-------------------|-5-5--------------------|
E|-------2-2-3-3--3-3-3-3--|------2-2-3-3--3-3-3-3--|

 Bm
I'm gonna run so fast 'til I can’t breath
G
Come along and follow me
Bm                                     A9
Let's make some noise we never did before

D9        G        Bm
It's a brand new day
A9
Don't you see me
D9       G     Bm
Changing up my way
A9
So completely
G
This time i'm gonna sing, everybody hear it
D
This time i'm gonna show you that i got the spirit
A
It's a brand new day
And I'm feelin' good
And I'm feelin' good

( D  G  Bm  A )
So drummin' free
(So drummin' free)
I'm all about the music
I just want to sing
Watch me
Leave out my dreams
(Leave out my dreams)
I wanna rock that stage
And give my everything

Bm
I'm gonna dance until my feet can't move
G
Come along get in the groove
Bm                                         A
Let's shine so bright what can we did before

D        G        Bm         A
It's a brand new day

Don't you see me
D     G     Bm         A
Changing up my way

So completely

G
This time i'm gonna sing, everybody hear it
D
This time i'm gonna show you that i got the spirit
A
It's a brand new day

And I'm feelin' good
Em
(What you gonna do what you gonna do)
G
I'm outta life through the the summer with you
Bm
(Who you gonna be who you gonna be)
D
You'll just have to watch me, can't believe
Em
(Where you gonna go where you gonna go)
G
Anywhere my heart wants me to go

( A )
I'm gonna sing
I'm gonna dance
I'm gonna ride
I'm gonna play
I'm gonna show my gift in everything

( D  G  Bm  A )
Composição de Kara DioGuardi / Mitch Allen
Colaboración y revision:
1.358 reproducciones
    • ½ Tono
    • A
    • Bb
    • B
    • C
    • Db
    • D
    • Eb
    • E
    • F
    • F#
    • G
    • Ab
  • Adicionar à lista

    0 comentarios

    Ver todos os comentários

    ¿Conseguiste tocar?

    15 Tocaram 0 Ainda não

    Grave um vídeo tocando Brand New Day e nos envie!

    00:00 / 00:00
    outros vídeos desta música
    repetir qualidade Automático
    Outros vídeos desta música
    00:00 / 00:00
    Automático
    OK