Cifra Club

Aprenda

Skyscraper

Demi Lovato

Tablatura: Completa (guitarra)
tono: G
E|--------------------------------------------------------------------|
B|--------------------------------------------------------------------|
G|----------------------------------------------------2-2-2-2-2-2-2-2-|
D|------------------2-2-2-2-2-2-2-2--2-2-2-2-2-2-2-2--0-0-0-0-0-0-0-0-|
A|-2-2-2-2-2-2-2-2--3-3-3-3-3-3-3-3--2-2-2-2-2-2-2-2------------------|
E|-3-3-3-3-3-3-3-3----------------------------------------------------|

E|--------------------------------------------------------------------|
B|--------------------------------------------------------------------|
G|----------------------------------------------------2-2-2-2-2-2-2-2-|
D|------------------2-2-2-2-2-2-2-2--2-2-2-2-2-2-2-2--0-0-0-0-0-0-0-0-|
A|-2-2-2-2-2-2-2-2--3-3-3-3-3-3-3-3--2-2-2-2-2-2-2-2------------------|
E|-3-3-3-3-3-3-3-3----------------------------------------------------|

E|--------------------------------------------------------------------|
B|--------------------------------------------------------------------|
G|----------------------------------------------------2---------------|
D|------------------2-2-2-2-2-2-2-2-------------------0---------------|
A|-2-2-2-2-2-2-2-2--3-3-3-3-3-3-3-3--2-2-2-2-2-2-2-2------------------|
E|-2-2-2-2-2-2-2-2-------------------3-3-3-3-3-3-3-3------------------|

Refrão:
              G              C9
You can take everything I have
               Em7           D11/F#
You can break everything I am
                    G
Like I'm made of glass
 C9                 Em7  D11/F#
 Like I'm made of paper
          Em7              C9
Go on and try to tear me down
           G                 D11/F#
I will be rising from the ground
             Em7 C9
Like a skyscraper
             G   D11/F#
Like a skyscraper

2° parte:
         G
As the smoke clears
    C9          Em7              D11/F#
I awaken and untangle you from me
          G        C9
Would it make feel better
     Em7                 D11/F#
To watch me while I bleed
         Em7                  C9
All my windows, still are broken
           G             D11/F#
But I'm standing on my feet

Refrão:
              G              C9
You can take everything I have
               Em7           D11/F#
You can break everything I am
                    G
Like I'm made of glass
 C9                 Em7  D11/F#
 Like I'm made of paper
          Em7              C9
Go on and try to tear me down
           G                 D11/F#
I will be rising from the ground
             Em7 C9
Like a skyscraper
             G   D11/F#
Like a skyscraper

 A7(4)         Em7
 Go run, run, run
                         C9
 I'm gonna stay right here
                G
Watch you disappear
A7(4)         Em7
 Go run, run, run
                       C9
 Yeah its a long way down
           G                  D11/F#
But I'm closer to clouds up here

Refrão:
              G              C9
You can take everything I have
               Em7           D11/F#
You can break everything I am
                    G
Like I'm made of glass
 C9                 Em7  D11/F#
 Like I'm made of paper
          Em7              C9
Go on and try to tear me down
           G                 D11/F#
I will be rising from the ground
             Em7 C9
Like a skyscraper
             G   D11/F#
Like a skyscraper
            Em7  C9
Like a skyscraper
Composição de Kerli Koiv / Lindy Robbins / Toby Gad
Colaboración y revision:
  • Vinicius
194 reproducciones
    • ½ Tono
    • A
    • Bb
    • B
    • C
    • Db
    • D
    • Eb
    • E
    • F
    • F#
    • G
    • Ab
  • Adicionar à lista

    0 comentarios

    Ver todos os comentários

    ¿Conseguiste tocar?

    18 Tocaram 0 Ainda não

    Grave um vídeo tocando Skyscraper e nos envie!

    00:00 / 00:00
    outros vídeos desta música
    repetir qualidade Automático
    Outros vídeos desta música
    00:00 / 00:00
    Automático
    OK