Cifra Club

Aprenda

Jerusalém e Eu

Denise Cerqueira

Tablatura: Principal (guitarra)
tono: A (con acordes en la forma de F) Capotraste na 4ª casa
     Am         G     F         C/E    Dm
E|-----------------------------------1p0-1-----1-0---|
B|-1p0-1-----1--0----------------------------3-3---3-|
G|---------2-------2p0-2-----2--0----------2---2-----|
D|-------2-----------------3-------------0-----0-----|
A|-----0-----------------3---------------------------|
E|--------------3------1--------0--------------------|

      Bb           G4       G    Am         G    F
E|-----------------1---------------------------------|
B|-1--3---------------------0--1p0-1-----1--0--------|
G|----3---3---3-2------0---------------2-------2p0-2-|
D|----3-3---3-3------0---0-----------2---------------|
A|----1-------1--------------------0-----------------|
E|-----------------4--------3---------------3------1-|

          C/E    Dm     C/E   G   G4   C
E|-------------1p0--1---0------------------------|
B|------------------3---1-----3---1----1-----1---|
G|-----2--0---------2---0---------0--------0---0-|
D|---3--------------0---2---------0------2-------|
A|-3-----------------------------------3---------|
E|--------0-------------------3---3--------------|

  C          G/C        F       G4  G   C
Naquela multidão só ele tinha a cruz  a fim de
     G/C      F9   G4  E7           Am7
Perdoar o meu pecar  e eu não fui capaz de
D/F#         G     C             Em/B      F9  G
Defender sua dor sabendo que fez tudo por amor
    C            G/B        F/A   G/B  C
Que mal terrível sobre si Jesus levou enorme
    G/B            F/A  G   E7     E7/G#  Am7
Diferença ao mundo fez   eu lembro seu   olhar
   D/F#  D7/F#  G       C              Em/B
Na minha di-----reção rogando a Pai perdão  para
  F   G4  G  C               Em/B       F  G4  C
Jerusalém  rogando ao Pai perdão para Jeru-sa--lém

               G/B       Am7                   G
Eu não quero errar outra vez e apesar dos meus erros
  F   C/E     Dm          F/G   G  C
Refez    a aliança que eu mesmo quebrei meu pecado
   G/B       Am7                     G   C/E  G  F
Deixou lá na cruz quando ressuscitou meu Je---sus
C/E      Dm       F/G   G   Am  G  F  G4  G
   Minha vida começou outra vez

    C            G/B        F/A  G/B   C
Oh! Meu Senhor Jerusalém te machucou Senhor mas eu
   G/B         F/A  G    E7    E7/G#   Am7   D/F#
Também já te neguei  por vezes quis fingir dizendo
         G        C              Em/B      F  G
Tê-lo em mim mais lá no fundo eu fui Jerusalém
     C            Em/B      F  G4  C
Mais outra chance recebeu Jeru-sa--lém

               G/B       Am7
Eu não quero errar outra vez e apesar dos meus
G       F   C/E     Dm          F/G   G  C
Erros refez    a aliança que eu mesmo quebrei
              G/B       Am7
Meu pecado deixou lá na cruz quando ressuscitou
G   C/E  G  F  C/E      Dm       F/G   G   E7
Meu Je---sus      minha vida começou outra vez
E7/G#  Am7  Am7  G  C/E  F   F/A  G4
            Je---ru-sa---lém e    eu

                   A  F#m7  Bm7                   A
Eu não quero errar ou-tra   vez e apesar dos meus erros
  G   D/F#     Em          A4       D
Refez     a aliança que eu mesmo quebrei meu pecado
   A9/C#      Bm7                     A   D/F#  A  G
Deixou  lá na cruz quando ressuscitou meu Je----sus
D/F#     Em       A4    A   Bm  A  C#m  B  A  G  A9  B
   Minha vida começou outra vez
Composição de Josué Teodoro
87 reproducciones
    • ½ Tono
    • A
    • Bb
    • B
    • C
    • Db
    • D
    • Eb
    • E
    • F
    • F#
    • G
    • Ab
  • Adicionar à lista

    0 comentarios

    Ver todos os comentários
    00:00 / 00:00
    outros vídeos desta música
    repetir qualidade Automático
    Outros vídeos desta música
    00:00 / 00:00
    Automático
    OK