Cifra Club

Rola Um Love (part. MC Kevinho e Dilsinho)

DENNIS

Cifrado: Principal (guitarra y guitarra eléctrica)
Selo Cifra Club: esta cifra foi revisada para atender aos critérios oficiais da nossa Equipe de Qualidade.
tono: A
[Intro] A  F#m  Bm  E
        A  F#m  Bm  E

E|-9-12--------12/14-9----------------------|
B|------12-10----------12-10----------------|
G|------------------------------------------|
D|------------------------------------------|
A|------------------------------------------|
E|------------------------------------------|

E|-9-12-------------------------------------|
B|------12-10-9--14-12-14-12-14-12----14----|
G|---------------------------------14-------|
D|------------------------------------------|
A|------------------------------------------|
E|------------------------------------------|

E|-9-12--------12/14-9----------------------|
B|------12-10----------12-10----------------|
G|------------------------------------------|
D|------------------------------------------|
A|------------------------------------------|
E|------------------------------------------|

E|-9-12-------------------------------------|
B|------12-10-9-----------------------------|
G|------------------------------------------|
D|------------------------------------------|
A|------------------------------------------|
E|------------------------------------------|

[Primeira Parte]

      A          F#m
Essa mina tá querendo
         Bm                        E
Se envolver, ficou muito tempo solteira
       A           F#m
Só na pista e eu saindo também
           Bm                             E
Mas o problema é que eu não sei amar ninguém

[Pré-Refrão]

A            F#m
Eu tô te querendo (tô te querendo)
           Bm                             E
Mas o problema é que eu não sei amar ninguém
A            F#m
Eu tô te querendo (tô te querendo)
           Bm                E            A
Mas o problema é que eu não sei amar ninguém

[Refrão]

             F#m
Rola um love,    rola um love
Bm              E                  D      A
   Rola um love,  rola um love entre nós dois
             F#m
Rola um love,    rola um love
Bm              E                  D      A
   Rola um love,  rola um love entre nós dois

[Solo] F#m  Bm  E
       A  F#m  Bm  E

E|-9-12--------12/14-9----------------------|
B|------12-10----------12-10----------------|
G|------------------------------------------|
D|------------------------------------------|
A|------------------------------------------|
E|------------------------------------------|

E|-9-12-------------------------------------|
B|------12-10-9--14-12-14-12-14-12----14----|
G|---------------------------------14-------|
D|------------------------------------------|
A|------------------------------------------|
E|------------------------------------------|

E|-9-12--------12/14-9----------------------|
B|------12-10----------12-10----------------|
G|------------------------------------------|
D|------------------------------------------|
A|------------------------------------------|
E|------------------------------------------|

E|-9-12-------------------------------------|
B|------12-10-9-----------------------------|
G|------------------------------------------|
D|------------------------------------------|
A|------------------------------------------|
E|------------------------------------------|

[Primeira Parte]

      A          F#m
Essa mina tá querendo
         Bm                        E
Se envolver, ficou muito tempo solteira
       A           F#m
Só na pista e eu saindo também
           Bm                             E
Mas o problema é que eu não sei amar ninguém

[Pré-Refrão]

A            F#m
Eu tô te querendo (tô te querendo)
           Bm                             E
Mas o problema é que eu não sei amar ninguém
A            F#m
Eu tô te querendo (tô te querendo)
           Bm                E            A
Mas o problema é que eu não sei amar ninguém

[Refrão]

             F#m
Rola um love,    rola um love
Bm              E                         A
   Rola um love,  rola um love entre nós dois
             F#m
Rola um love,    rola um love
Bm              E                         A
   Rola um love,  rola um love entre nós dois

[Final] F#m  Bm  E
        A  F#m  Bm  E

E|-9-12--------12/14-9----------------------|
B|------12-10----------12-10----------------|
G|------------------------------------------|
D|------------------------------------------|
A|------------------------------------------|
E|------------------------------------------|

E|-9-12-------------------------------------|
B|------12-10-9--14-12-14-12-14-12----14----|
G|---------------------------------14-------|
D|------------------------------------------|
A|------------------------------------------|
E|------------------------------------------|

E|-9-12--------12/14-9----------------------|
B|------12-10----------12-10----------------|
G|------------------------------------------|
D|------------------------------------------|
A|------------------------------------------|
E|------------------------------------------|

E|-9-12-------------------------------------|
B|------12-10-------------------------------|
G|------------------------------------------|
D|------------------------------------------|
A|------------------------------------------|
E|------------------------------------------|
Otros videos de esta canción
    237 exhibiciones
      • ½ Tono
      • A
      • Bb
      • B
      • C
      • Db
      • D
      • Eb
      • E
      • F
      • F#
      • G
      • Ab
    • Agregar a la lista

    Afinación de cifrado

    Afinador online

      OK