Cifra Club

Goodbye

Depeche Mode

Cifrado: Principal (guitarra y guitarra eléctrica)
Selo Cifra Club: esta cifra foi revisada para atender aos critérios oficiais da nossa Equipe de Qualidade.
tono: C
   Am
E|---------------------|
B|----1----------------|
G|---2-2-0-2p0---------|
D|--2------------------|
A|-0-----------0-3-0-3-|
E|---------------------|

   G
E|--------------|
B|---0--0--0--0-|
G|--0--0--0--0--|
D|-0--0--0--0---|
A|--------------|
E|--------------|

   E
E|--------------|
B|---0--0--0--0-|
G|--1--1--1--1--|
D|-2--2--2--2---|
A|--------------|
E|--------------|

   G*
E|--------------|
B|---3--3--3--3-|
G|--4--4--4--4--|
D|-5--5--5--5---|
A|--------------|
E|--------------|

   A
E|--------------|
B|---2--2--2--2-|
G|--2--2--2--2--|
D|-2--2--2--2---|
A|--------------|
E|--------------|

(Toca com dedilhado)

Intro: Am (4x)

Am
It was you that took my soul
And threw it in the fire
And tamed it in the rapture
And filled me with desire

        G
Now I'm pure
        E
Now I'm clean
       G*          A       Am
I feel cured and serene in you

Am
There is no denying
how I have been changed
You won't hear me crying
Now misery is strange
      G
I can dream
      E
I can fly
       G*          A       Am
Now it seems I get by with you

F    C   D     Am
Good-goodbye, pain
F    C   D    Am
Good-goodbye again

Am
I was always looking, looking for someone
Someone to stick my hook in
And pull it out and run
        G              E
Now I'm caught on your line
       G*             A         Am
All my thoughts are entwined in you

F    C   D     Am
Good-goodbye, pain
F    C   D    Am
Good-goodbye again

Am
If you see me walking
To the golden gates
Then turn around start talking
Stop and hesitate
     G             E
I'll be waiting up there
        G*          A
With my fate in the air
    Am
For you
Otros videos de esta canción
    481 exhibiciones
      • ½ Tono
      • A
      • Bb
      • B
      • C
      • Db
      • D
      • Eb
      • E
      • F
      • F#
      • G
      • Ab
    • Agregar a la lista

    Afinación de cifrado

    Afinador online

      OK