Cifra Club

Here Is The House

Depeche Mode

Cifrado: Principal (guitarra y guitarra eléctrica)
tono: Eb
(intro)

-------------------------------------------------------------------------|
 ------------------------------------------------------------------------|
 ------------------------------------------------------------------------|
 ----------------2/3-0-0-0-----------------------------------------------|
 ---2/3-0-0-0------------------------------------------------------------|
 -----------------------------2/3-0-0-0---2/3-0-0-0----------------------|

Cm                Eb
Here is the house
         Ab          G
Where it all happens
             Cm       Eb
Those tender moments
      Ab        G
Under this roof
Cm                   Eb
Body and soul come together
Ab                 G
As we come closer together
Ab
And is it happens
It happens here
        Cm     Eb   Ab   G
In this house

(Cm Eb Ab G)

Cm
And I feel your warmth
                  Ab
And it feels like home
And there's someone
Eb             G   Cm
Calling on the telephone
Let's stay home
             Ab
It's cold outside
           Eb
And I have so much
G     Cm             Gm
To confide to you

Ab              Eb
With or without words
             Ab
I'll confide everything

Here is the house
Where it all happens
Those tender moments
Under this roof
Body and soul come together
As we come close together
And as it happens
It happens here
In this house

Cm
So we stay at home
                Ab
And I'm by your side
And you know
Eb          G     Cm
What's going on inside
Inside my heart
            Ab
Inside this house
           Eb
And I just want to
G      Cm            Gm
Let it out for you

Ab              Eb
And I feel your warmth
                 Ab
And it feels like home
Cm               Eb
And I feel your warmth
             Abm
And it feels like home

Here is the house
Where it all happens
Those tender moments
Under this roof
Body and soul come together
As we come closer together

(solo)
E|-8-8-8-10-10-10-11-11-10-10-10---------------------------------------------------|
B|-------------------------------11-11-11-8-8-11-11-11-8-8-8-----8-8-8-------------|
G|-----------------------------------------------------------8-8------8-8-8-7-7----|
D|---------------------------------------------------------------------------------|
A|---------------------------------------------------------------------------------|
E|---------------------------------------------------------------------------------|
Composición de Martin Gore
270 vistas
    • ½ Tono
    • A
    • Bb
    • B
    • C
    • Db
    • D
    • Eb
    • E
    • F
    • F#
    • G
    • Ab
  • Agregar a la lista

    0 comentarios

    Ver todos los comentarios

    ¿Lograste tocar?

    0 Tocaron 0 Aún no

    ¡Graba un video tocando Here Is The House y envíanoslo!

    00:00 / 00:00
    Outros vídeos desta música
    Repetir Calidad Automático
    Outros vídeos desta música
    00:00 / 00:00
    Automático
    OK