Cifra Club

Girl

Destiny's Child

Cifrado: Principal (guitarra y guitarra eléctrica)
Selo Cifra Club: esta cifra foi revisada para atender aos critérios oficiais da nossa Equipe de Qualidade.
tono: C#m
E|----00--2-4--4b-------00--2--4-----|
B|--2---2-------------2----2-----1b--|
G|-----------------------------------|
D|-----------------------------------|
A|-----------------------------------|
E|-----------------------------------|


In the "bridge" kinda bit I play:

E|------0--2--4-4/5---|
B|--2-----------------|
G|--------------------|
D|--------------------|
A|--------------------|
E|--------------------|
Otros videos de esta canción
    57 exhibiciones
      • ½ Tono
      • Am
      • Bbm
      • Bm
      • Cm
      • C#m
      • Dm
      • Ebm
      • Em
      • Fm
      • F#m
      • Gm
      • G#m
    • Agregar a la lista

    Afinación de cifrado

    Afinador online

      OK