Cifra Club

Aprenda

Ladrão de Gravata

Detonautas

Tablatura: Principal (guitarra)
tono: A
Introdução
Riff feito pelo Guitarra 2 Rodrigo Netto


E|-----------------------------------|     
B|-----------------------------------|   
G|-----------------------------------| 
D|-----------------------------------|
A|----5/7-----5/7---5557-------------|
E|-----------------------------------|

E|------------------------------------------|     
B|------------------------------------------|   
G|------------------------------------------| 
D|------------------------------------------|
A|----5/7-5/7----5/7--5557-----5-3-2--------|
E|------------------------------------------|
Riff Feito pelo Guitarra 1 Renato Rocha (esse riff é feito o tempo todo, menos no refrão)

E|-----------------------------------|     
B|-----------------------------------|   
G|-----------------------------------|  
D|-----------------------------------|
A|-----------------------------------|
E|--0-0-3333-2-2-5-3-0--0-3333-2~----|



Vou rimando na velocidade alucinante 
Num caminho mais distante 
Onde a luz não vai me pegar
A ciência ainda não explica
Porque é que a gente fica 
Aqui parado apanhando sem revidar 
Vou rimando afobado
Mas não vou ficar parado
É melhor tomar cuidado 
Eu também quero bater 
E quem não está do meu lado 
É melhor ficar ligado 
Este jogo está errado 
Vou virar , vou vencer 

(Duas batidas no "E")
Eu quero ver, eu quero ver
Vou virar, vou vencer
1,2,3 vai...

( Refrão)

  E      G       A          E
Cata, o cara é ladrão de gravata 
   G       A        E 
Só vive atrás de mamata 
     G       A         E 
Achando que aqui tem babaca 

Toca-se o Riff 1 (rodrigo Netto e junto com o Riff 2)

Intriga "k ô", armação, troca de favor, mentira corrupção
Depois aparece na televisão com a cara lavada dizendo que não


Riff feito por Renato Rocha
E|-----------------------------------|     
B|-----------------------------------|   
G|-----------------------------------|  
D|-----------------------------------|
A|-----------------------------------|
E|--0--3-3-2----5-3-0-----3-3--2~----|
A culpa é sua mané, que colocou ele lá, agora sabe qualé ? 
Você vai ter que aturar , mas se você percebeu, que ele roubou de você 
Então faça como eu: vou virar vou vencer. 

(Duas batidas no "E")
Eu quero ver, eu quero ver §
Vou virar, vou vencer
1,2,3 vai...

(Refrão)

Faça um abafado na mesma sequencia do refrão E G A

Intriga "k ô" e armação, troca de favor, mentira corrupção
Depois aparece na televisão com a cara lavada dizendo que não
A culpa é sua mané, que colocou ele lá, agora sabe qualé ? 
Você vai ter que aturar , mas se você percebeu, que ele roubou de você 
Então faça como eu: vou virar vou vencer. 

Eu quero ver, eu quero ver 
Vou virar, vou vencer
1,2,3 vai...
(Vai se fuder então!)

(Refrão)

Diálogo entre os políticos:
-Aí, tem uma parada aí q eu acho q vai rolar uma sobra de uma grana boa meu irmão!
-Quantos por cento?
-Ah, sei lá! 60%
-60% pra quem?
-É..vamo dividir né?
-30 a 30?
-30 a 30!
-Ou 60 pra mim?
-Não! Eu gostaria de roubar tudo kra, mas...
-Tu não vai roubar tudo sozinho não q eu não vou deixar!
-Mas a gente vai ter q dividir isso em vários cheques kra...vai ser muito complicado!
-Então...60% pra mim!
-Então tá...E eu fico com o q meu amigo? Fico com zero?
-Hahahá...40
-Hahahá..0% não dá não!
-40%!
-Mas aí não vai sobrar dinheiro pra obra bicho...Tem q sobrar alguma coisa!
-Ah! dá 20% pro asilo!
-É muita fachada bicho!
-Então dá 10 pra escola!

(Refrão)
Composição de Detonautas Roque Clube / DJ Cleston
Colaboración y revision:
  • Lucas Meira
  • Liginha Fagundes
39 reproducciones
    • ½ Tono
    • A
    • Bb
    • B
    • C
    • Db
    • D
    • Eb
    • E
    • F
    • F#
    • G
    • Ab
  • Adicionar à lista

    0 comentarios

    Ver todos os comentários

    ¿Conseguiste tocar?

    2 Tocaram 0 Ainda não

    Grave um vídeo tocando Ladrão de Gravata e nos envie!

    00:00 / 00:00
    outros vídeos desta música
    repetir qualidade Automático
    Outros vídeos desta música
    00:00 / 00:00
    Automático
    OK