Cifra Club

No Way Out

Detonautas

Tab de bajo: Principal
intro:
|------------|
|------------| 7x  (até entrar
|------------|       o verso).
|---0/12~~~--| 

verso:
"já é tarde...."
|----------------------|
|----------------------| 3x
|-----------3-3--------|
|-0-0-0-5-5------------| 

"nosso fim é certo".
|-----------|
|-----------|
|-----------|
|-0-0-0-0-5-| 
                                 
"acabooooou,acabooou,acabou". 
|-------------------------------|
|-------------------------------|
|-------------------------------|
|-5-5-5-5-5-5-5-5-5-5-5-5-5-5-5-| 


aí repete o verso:
verso:
"já é tarde...."
|----------------------|
|----------------------| 3x
|-----------3-3--------|
|-0-0-0-5-5------------| 

"nosso fim é certo, acabou".
|---------------------------|
|---------------------------|
|---------------------------|
|-0-0-0-0-5-5-5-5-5-5-5-5-5-|


refrão:
"eu nem sei..."          
|----------------------------------|
|----------------------------------| 
|-------------------------3-3-3-3--|4x
|-0-0-0-0-3-3-3-3-5-5-5-5----------| 

instrumental (depois do refrão)
|----------------------------------|
|----------------------------------| 
|-------------------------3-3-3-3--|4x
|-0-0-0-0-3-3-3-3-5-5-5-5----------| 
                                                    


depois disso volta tudo, é só ouvir a musica que fica facil
d tira-la. nao está muito completa mas dá para levar.
              

_______________________________________________________
Contribuição: vini boni-pg(mancha_alvi_verde@hotmail.com)
Composição de Rodrigo Netto / Tico Santa Cruz
16 reproducciones

0 comentarios

Ver todos os comentários

¿Conseguiste tocar?

0 Tocaram 0 Ainda não

Grave um vídeo tocando No Way Out e nos envie!

00:00 / 00:00
outros vídeos desta música
repetir qualidade Automático
Outros vídeos desta música
00:00 / 00:00
Automático
OK