Cifra Club

O Amanhã

Detonautas

Tab de bajo: Principal
Acompaña nuestras novedades de Cifra Club en español.
¡Sigue nuestro perfil en Instagram!
Intro

G-------------------------------------------------------------
D-------------------------------------------------------------
A-------------------------------------------------------------
E-6-6-6-6-6-6-6-6-1-1-1-1-1-1-1-1-3-3-3-3-3-3-3-3-3-3-3-3-3-3-

G---------------------------------------------
D---------------------------------------------
A---------------------------------/6~~~~~~~~--
E-6-6-6-6-6-6-6-6-1-1-1-1-1-1-1-1-------------

a guitarra entra na base sozinha o baixo entra
quando a base é executada pela terceira vez
logo depois que o cantor fala inverso

base
G----------------------------------------------l
D---------------------------------------------*l1x
A---------------------3-6-6-6-6-6-6-6-6-6-3---*l
E-3-3-3-3-3-3-3-3-4-6-----------------------6--l

refrão

Gl--------------------------------------------------------------
Dl*-------------------------------------------------------------
Al*-------------------------------------------------------------
El--6-6-6-6-6-6-6-6-1-1-1-1-1-1-1-1-3-3-3-3-3-3-3-3-3-3-3-3-3-3-


G--------------------------------------------------------------l
D-------------------------------------------------------------*l1x
A---------------------------------6-6-6-6-6-6-6-6-6-6-6-6-6-6-*l
E-6-6-6-6-6-6-6-6-1-1-1-1-1-1-1-1------------------------------l

base segunda parte

G----------------------------------------------l
D---------------------------------------------*l5x
A---------------------3-6-6-6-6-6-6-6-6-6-3---*l
E-3-3-3-3-3-3-3-3-4-6-----------------------6--l

refrão igual ao refão ai de cima

no solo da guitarra o baixo da uma marcada em D e C, 
e deixa a nota soar tipo:

G--------------------------------l
D--------------------------------l
A----5~~~~--3~~~~--5~~~~--3~~~~--l
E--------------------------------l

ai logo depois vem a parte que o baixo acompanha a guitarra

G------------------------------------------------------------------l   
D-----------------------------------------------------------------*l2x 
A-5-5-5-5-5-5-5-5-5-5-5-5-5-5-5-5-3-3-3-3-3-3-3-3-3-3-3-3-3-3-3-3-*l   
E------------------------------------------------------------------l

G--------------------------------------------
D--------------------------------------------
A-5-5-5-5-5-5-5-5-5-5-5-5-5-5-5-5-6~~~~6~~~~-  
E--------------------------------------------

(Refrão 4x)
Composición de DJ Cleston / Fábio Brasil / Renato Rocha / Rodrigo Netto / Tico Santa Cruz
Colaboración y revisión:
  • Lauro Bisneto
33 vistas

0 comentarios

Ver todos los comentarios

¿Lograste tocar?

1 Tocaron 0 Aún no

¡Graba un video tocando O Amanhã y envíanoslo!

00:00 / 00:00
Outros vídeos desta música
Repetir Calidad Automático
Outros vídeos desta música
00:00 / 00:00
Automático
OK