Cifra Club

Aprenda

O Som Dos Corais

Detonautas

Tablatura: Principal (guitarra)
tono: D
Riff 1 - Guitarra 1( depois entra o baixo fazendo o mesmo) e a guitarra 2 faz E de fundo.
       Intro                                  riff 1

A|--------------/---------------0h4/5-5-5-5-5-5----5h7---------------0h4/5-----5h7-----------------
E|—12/-------/-----------0-------------------------------------------0-----------------------------------

Riff 2 - junto com a música, o baixo também faz o mesmo que a guitarra.

D|--------------------------5—7-----5------------------------------------------------5—7—5---------
A|--------5—7---5—7----------------------------7--------5-----7------5—7—5-----------------7---
E|------0----------------------------------------------------------------0----------------------------------

( Riff 2)
Faz que tanto já nem lembro mais, isso faz de mim o que ninguém mais faz
To perdendo a noção do que eu sou capaz

(Riff 1)
Ela fugiu daqui não sobrou mais nada
Tudo que ela tem só faz falta em mim
Ela levou de mim o que era mais forte
Eu não sei mais como devo reagir

F        G
Sinto falta de te ver (riff 1)
F     G
Olha só o que ta no céu ( riff 1)

(Riff 2)
O som que sai dos corais, quando quebra traz isso traz pra mim
O que ninguém mais traz, to perdendo a noção do que tanto faz


(Riff 1)
Ela fugiu daqui não sobrou mais nada
Tudo que ela tem só faz falta em mim
Ela levou de mim o que era mais forte
Eu não sei mais como devo reagir

F        G
Sinto falta de te ver (riff 1)
F     G
Olha só o que ta no céu ( riff 1)

(Riff 2)
O som que sai dos corais, quando quebra traz isso traz pra mim
O que ninguém mais traz, to perdendo a noção do que tanto faz

Repetir 2x essa parte
 A          G                      A
Mais, mais por mais que eu possa ver
 G                                              E
Do que eu quero saber, não faz mais          bem

Solo do baixo( letra cantando de fundo)

E|—3333—3-5------3333—3-5-6-5-3-----1111------------------------------------------------------

E eu andarei armado e vestido com as roupas de Jorge
Para que meus inimigos tenham pés e não me alcance
Para que meus inimigos tenham mãos e não me toquem
E nem em pensamentos eles possam me fazer o mal ( 2x )

Solo do Baixo:

A|--------------------------5-----5h7----------------------------------------------------------------------
E|-------5------3-------------------------------------------------------------------------------------------

D|--------------------------------------------5h7---5------------------------------------------------------
A|--------------------5---5h7----55555-------------------7---5-----------------------------------------
E|-----5---------3----------------------------------------------------7----5-------------------------------

Solo da guitarra, base ( A G D)

  g|----------------------------------------------------9-7-9-7----------7h9----7-5---------------------
  b|---10b---8—10—8----------6—8—8b------------------------------------------------------------
  e|---------------------------------------------------------------------------------------------------------

  g|-----------------------------------------------------------------------------8—12------------12------
  b|—10b---8—10---8-----------6—8—6------------------------------------------10-12-10----10-
  e|---------------------------------------------10/-12b12b12b12b-------------------------------------

F        G
Sinto falta de te ver (riff 1)
F     G
Olha só o que ta no céu ( riff 1)

Repete 3x no final entre parênteses faz o E ( mi ) maior terminado.
Obs: faça todos acordes, em power chords, fica bem mais bonito.
Essa é da galera da Banda Dona Doida, Dom Aquino-MT.
22 reproducciones
    • ½ Tono
    • A
    • Bb
    • B
    • C
    • Db
    • D
    • Eb
    • E
    • F
    • F#
    • G
    • Ab
  • Adicionar à lista

    0 comentarios

    Ver todos os comentários

    ¿Conseguiste tocar?

    0 Tocaram 0 Ainda não

    Grave um vídeo tocando O Som Dos Corais e nos envie!

    00:00 / 00:00
    outros vídeos desta música
    repetir qualidade Automático
    Outros vídeos desta música
    00:00 / 00:00
    Automático
    OK