Cifra Club

Olhos Certos

Detonautas

Cifrado: Do-cd (guitarra y guitarra eléctrica)
Acompaña nuestras novedades de Cifra Club en español.
¡Sigue nuestro perfil en Instagram!
tono: E
       C#m           A7M  C#m            A7M  C#m           A7M       A7M       A7M
E|--4---5/7-5-4--------4-5-5/7-5-4---------4---5/7-5-4----------------------------|
B|-5------------5-----5-------------------5-----------5-----5----5/7-5-----5/7-5--|
G|---------------------------------6/9--------------------------------------------|
D|--------------------------------------------------------------------------------|
A|--------------------------------------------------------------------------------|
E|--------------------------------------------------------------------------------|

E|--------------------------------|
B|--------------------------------|
G|--------------------------------|
D|--------------------------------|
A|-------4h6-4--------------------|
E|-0--0h5------7-5--0h5-5h7-5-4-0-|

E|-----------------------------|
B|-----------------------------|
G|-----------------------------|
D|-----------------------------|
A|----4h6-4--------------------|
E|-0h5------7-5--0h4-4h5-5-4-0-|

E|-----------------------------|
B|-----------------------------|
G|-----------------------------|
D|-----------------------------|
A|----4h6-4--------------------|
E|-0h5------7-5--0h5-5h7-5-4-0-|

E|----------------------------|
B|----------------------------|
G|----------------------------|
D|----------------------------|
A|----4h6-4-------------------|
E|-0h5------7-5--0h5-5h7-5-4--|

C#m           A7M
Sorte de nós dois
      C#m           F#7
Quero te fazer feliz
C#m     A7M             C#m   A7M
Meu amor,   sempre quis

(refrão)

      C#m                        A7M
      Seus olhos certos mas não sei o que dizer
      F#7                A7M
       Eu não vou mas o tempo vem
      C#m                     A7M
      Ta tudo certo mais não sei o que dizer
      F#7                A7M              (C#m  A7M)
       Eu não vou mas o tempo vem aqui.

C#m             A7M
Tento te encontrar
C#m          F#7
tanto pra dizer
C#m       A7M     C#m   A7M
Meu amor, tudo bem

C#m            A7M
Mesmo sem te ver
C#m             F#7
Não chegou ao fim
C#m      A7M        C#m    A7M
Seu amor,  tudo em mim.

E         B    C#m        A7M
  Se não for mais do que tento ser
E         B    A
  Se não for mais

E         B    C#m        A7M
  Se não for mais do que tento ser
E         B    A
  Se não for

C#m         B
La ra ra ra
         A7M
Nun na raaaa
                   C#m
Re re re re re re re
        B
Re re re
      A7M
Re re

C#m         B
La ra ra ra     A7M
La ra ra ra   ra raaaa
                   C#m
Re re re re re re re
        B
Re re re
    A7M
Re re

(refrão)
      C#m                        A7M
      Seus olhos certos mas não sei o que dizer
      F#7                A7M
       Eu não vou mas o tempo vem
      C#m                     A7M
      Ta tudo certo mais não sei o que dizer
      F#7                A7M              (C#m  A7M)
       Eu não vou mas o tempo vem aqui.

        C#m   B  C#m  A7M
E|------------------|
B|-5-----4--5-------|
G|---------------6--|
D|------------------|
A|------------------|
E|------------------|
Composición de DJ Cleston / Fábio Brasil / Renato Rocha / Rodrigo Neto / Tchello / Tico Santa Cruz
Colaboración y revisión:
  • Leonardo Lima
  • Guilherme Novaes
  • leandro vieira
362 vistas
    • ½ Tono
    • A
    • Bb
    • B
    • C
    • Db
    • D
    • Eb
    • E
    • F
    • F#
    • G
    • Ab
  • Agregar a la lista

    0 comentarios

    Ver todos los comentarios
    00:00 / 00:00
    Outros vídeos desta música
    Repetir Calidad Automático
    Outros vídeos desta música
    00:00 / 00:00
    Automático
    Capítulos
    • Início
    • Tocando a música
    • Acordes da Introdução e Primeira Parte
    • Tocando Introdução e Primeira Parte
    • Ensinando Ritmo da Introdução e Primeira Parte
    • Acordes da Segunda Parte
    • Tocando Segunda Parte e Final
    • Ensinando Final da música
    • Encerramento
    OK