Cifra Club

Aprenda

Sonhos Verdes

Detonautas

Tablatura: Principal (guitarra)
tono: C
[Intro]

      Am         C          D9         F
E|-12-10-8----10-8-------8-------------------------------|
B|---------12------12-10---12-10-8-----------------------|
G|---------------------------------10-9----9-10-12-10-9--|
D|--------------------------------------12---------------|
A|-------------------------------------------------------|
E|-------------------------------------------------------|

 Am           C    D  (Riff 1)
Tenho sonhos verdes
F                 Am            C  D9  (Riff 2)
Acho que vão nos ver de novo aqui
 F               Am  C  (Riff 1)
Temos que acreditar
     D9  (Riff 2)    F    Am  (Riff 3)
Que realmente     algo mudou
C   D              F
   Mesmo que seja dentro de nós

  [Riff 1]     [Riff 2]      [Riff 3]
E|---------| |--8-7------| |-----------------8-7----8-7--------|
B|-10-8----| |------8~---| |-10-8----10-8--------8~-----8~-----|
G|------9~-| |-----------| |------9~------9~-------------------|
D|---------| |-----------| |-----------------------------------|
A|---------| |-----------| |-----------------------------------|
E|---------| |-----------| |-----------------------------------|

 Am               C        D9
Sempre que nós estamos juntos
   F                Am     C  D9   F
É você quem liberta o mal de mim

E|---------------------------|
B|-----------8---------------|
G|-7-----7h9---9p7-----------|
D|---10-------------10-7-----|
A|-----------------------10--|
E|---------------------------|

 Am               C        D9
Sempre que nós estamos juntos
     F                 Am     C  D9  F
É você quem liberta o mal de mim

E|-----------------------|
B|--7-----------8~-------|
G|----10---7h9-----------|
D|-----------------------|
A|-----------------------|
E|-----------------------|

 Am               C  D9  (Riff 1)
Penso em dias perfeitos
  F              Am     C  D9  (Riff 2)
Quero te ver de novo aqui
 F               Am  C  (Riff 1)
Temos que acreditar
     D9  (Riff 2)  F       Am  C  (Riff 3)
Que realmente      algo mudou
 D9             F
Mesmo que seja dentro de nós

 Am               C        D9
Sempre que nós estamos juntos
     F                 Am     C  D9  F
É você quem liberta o mal de mim

[Riff]

E|---------------------------|
B|------8--------------------|
G|--7h9---9p7----------------|
D|------------10-7-----------|
A|-----------------7---------|
E|---------------------------|

 Am               C        D9
Sempre que nós estamos juntos
     F                 Am     C  D9  F
É você quem liberta o mal de mim

 Am                  C            F  Em  (Riff 4)
Sinto que a terra girou ao meu redor
 Am                     C          F  Em (Riff 5)
Sinto que estamos mais longe da razão
 Am                       C            F  Em  (Riff 6)
Sinto uma saudade do que não me aconteceu
 Am                          C                F
Sinto os teus instintos tão fortes quanto os meus

[Riff 4]

E|-------------------------------------------------------|
B|--10--/8---3\5~----------------------------------------|
G|-------------------------------------------------------|
D|-------------------------------------------------------|
A|-------------------------------------------------------|
E|-------------------------------------------------------|

[Riff 5]

E|--12~---12/8--12/8--12/8--12/8---/17~------------------|
B|-------------------------------------------------------|
G|-------------------------------------------------------|
D|-------------------------------------------------------|
A|-------------------------------------------------------|
E|-------------------------------------------------------|

[Riff 6]

E|--10~---8\7~-------------------------------------------|
B|------------------------------8/10~--------------------|
G|-------------------------------------------------------|
D|-------------------------------------------------------|
A|-------------------------------------------------------|
E|-------------------------------------------------------|

[Solo]

       Am           C            D9                     F
E|--------------------------------------------------------------------|
B|--10-8-10----8-10--8-------------8--------------------8---8---8-----|
G|-----------9----------9-7-9-7h9----9p7----7-------7h9---9---9---9---|
D|---------------------------------------10---10-7--------------------|
A|--------------------------------------------------------------------|
E|--------------------------------------------------------------------|

E|------------------------------------------------------8h10----10----10---|
B|--10--10-12-12--13-13--12-12--10-10--12-12--13-13--10------10----10------|
G|-------------------------------------------------------------------------|
D|-------------------------------------------------------------------------|
A|-------------------------------------------------------------------------|
E|-------------------------------------------------------------------------|

E|-----10-10/12-----12----12~-----|
B|--13-----------10----10---------|
G|--------------------------------|
D|--------------------------------|
A|--------------------------------|
E|--------------------------------|

 Am               C        D9
Sempre que nós estamos juntos
     F                 Am     C   D9   F
É você quem liberta o mal de mim

E|---------------------------|
B|-----------8---------------|
G|-7-----7h9---9p7-----------|
D|---10-------------10-7-----|
A|-----------------------10--|
E|---------------------------|

 Am               C        D9
Sempre que nós estamos juntos
     F                 Am     C   D9
É você quem liberta o mal de mim
     F                 Am     C   D9
É você quem liberta o mal de mim

     F                 Am     C   D9
É você quem liberta o mal de mim
     F                 Am
É você quem liberta o mal

      Am         C          D9         F
E|-12-10-8----10-8-------8-------------------------------|
B|---------12------12-10---12-10-8-----------------------|
G|---------------------------------10-9----9-10-12-10-9--|
D|--------------------------------------12---------------|
A|-------------------------------------------------------|
E|-------------------------------------------------------|
Composição de DJ Cleston / Fábio Brasil / Renato Rocha / Rodrigo Netto / Tico Santa Cruz
327 reproducciones
    • ½ Tono
    • A
    • Bb
    • B
    • C
    • Db
    • D
    • Eb
    • E
    • F
    • F#
    • G
    • Ab
  • Adicionar à lista

    0 comentarios

    Ver todos os comentários

    ¿Conseguiste tocar?

    18 Tocaram 0 Ainda não

    Grave um vídeo tocando Sonhos Verdes e nos envie!

    00:00 / 00:00
    outros vídeos desta música
    repetir qualidade Automático
    Outros vídeos desta música
    00:00 / 00:00
    Automático
    OK