Cifra Club

When I

Devotion

Chords: Principal (acoustic and electric guitars)
tone: F


       -transcribed by Roij (*)
============================================

Intro Uses C# modified Chord from the 3rd fret shown below

e ---3-----3-----3-----3-----3-----3------------3------------|
b -----3-----3-----3-----3-----3-----3--------3---3----------|
g -------5-----5-----5-----5-----5-----5----5-------5--------|
D ---------------------------------------5-------------------|
A -----------------------------------------------------------|
E -----------------------------------------------------------|

FINGER POSITION FOR THE CHORDS
Verse and Chorus:

C# modified Chord from the 3rd fret
e--0--|-----|-----|
b--0--|-----|-----|
g-----|-----|--0--|
D-----|-----|--0--|
A--0--|-----|-----|
E--X--|-----|-----|

Bm Chord on 2nd fret
e--0--|-----|-----|
b-----|--0--|-----|
g-----|-----|--0--|
D-----|-----|--0--|
A--0--|-----|-----|
E--X--|-----|-----|

Am/Asus Chord
e--X--|-----|-----|
b--0--|-----|--1--|
g-----|--0--|-----|
D-----|--0--|-----|
A-----|-----|-----|
E--X--|-----|-----|

F Chord
e--X--|-----|-----|
b--X--|-----|-----|
g-----|--0--|-----|
D-----|-----|--0--|
A-----|-----|--0--|
E--0--|-----|-----|

G# Chord on the 3rd fret
e--X--|-----|-----|
b--X--|-----|-----|
g-----|--0--|-----|
D-----|-----|--0--|
A-----|-----|--0--|
E--0--|-----|-----|

Repeat to C# modified Chord


Bridge:

Bb Chord from the 6th fret
e--X--|-----|-----|
b--0--|-----|-----|
g-----|--0--|-----|
D-----|-----|--0--|
A-----|-----|--0--|
E--0--|-----|-----|

Am Chord from the 5th fret
e--X--|-----|-----|
b--0--|-----|-----|
g--0--|-----|-----|
D-----|-----|--0--|
A-----|-----|--0--|
E--0--|-----|-----|

G#/Ab Chord from the 4th fret
e--X--|-----|-----|
b--0--|-----|-----|
g-----|--0--|-----|
D-----|-----|--0--|
A-----|-----|--0--|
E--0--|-----|-----|

G# Chord on the 3rd fret
e--X--|-----|-----|
b--0--|-----|-----|
g-----|--0--|-----|
D-----|-----|--0--|
A-----|-----|--0--|
E--0--|--1--|--2--|

Repeat Once then back to Chorus


Example using the chords above:
C#              Bm                      Am/Asus                 F                 G#
I sit and       think about you your    eyes are calling my     heart
I wish I could  give you my love but I  don't know where to     star             (All that I
ask) Is to      feel your touch         and have your hand in   mine
(To feel        your heart) beat        next to mine            would make my    dreams come
love.
00:00 / 00:00
Other videos of this song
Repeat
Other videos of this song
Composer not found.
17 views
    • ½ Tone
    • A
    • Bb
    • B
    • C
    • Db
    • D
    • Eb
    • E
    • F
    • F#
    • G
    • Ab
  • Add to list
    00:00 / 00:00
    OK