Cifra Club

Algo Errado

DFC

Cifrado: Principal (guitarra y guitarra eléctrica)
tono: C
* - nota abafada
/ - slide up
\ - slide down

(intro)
E|-------------------|
B|-------------------|
G|-------------------|
D|-------3-2---------|
A|-1111-------2--2-2-|
E|------------0--0-0-|
              *  * *

E|---------------------------------------|
B|---------------------------------------|
G|---------------------------------------|
D|---------------------------------------|
A|-2-2--2-2-2--2-5-7--8--7--5-7---8---10-|
E|-0-0--0-0-0--0-3-5--6--5--3-5---6---8--|

  Não dá pra viver
  Sentindo o dia-a-dia, trabalhar o mês inteiro e não ter o que comer
  Viver pra sofrer
  Escravo do trabalho e ter a esperança de se conseguir vencer
  Matar não muda nada
  O governo só piora, talvez com a eleição isso poderá mudar

E|---------------------------------|
B|---------------------------------|
G|----4-4--------------------------|
D|----2-2--------------------------|
A|-2-------5-7--8--7--5-7---8---10-|
E|-0-------3-5--6--5--3-5---6---8--|

  O cantidato prometeu
  Mudar a situação, depois que foi eleito esqueceu o que falou
  O deputado já falou
  Acabar com essa merda, o tempo já passou e continua a mesma coisa

E|---------------------------------------|
B|---------------------------------------|
G|---------------------------------------|
D|---------------------------------------|
A|-2-2--2-2-2--2-5-7--8--7--5-7---8---10-|
E|-0-0--0-0-0--0-3-5--6--5--3-5---6---8--|

  O prefeito já jurou
  Tomar uma providência, dizem que é muito fácil acabar com a miséria
  A miséria continua
  A fome ainda existe, ninguém tá interessado em mudar porra nenhuma

E|------------------|
B|------------------|
G|------------------|
D|------------------|
A|-5/7--8--5/7--8\2-|
E|-3/5--6--3/5--6\0-|

  O tempo passou e nada mudou
  Alguém tá mentindo e o povo tá fodido
  O tempo passou e nada mudou
  Alguém tá mentindo e o povo tá fodido
Compositor não encontrado.
Colaboración y revisión:
  • Renato Santos
30 vistas
    • ½ Tono
    • A
    • Bb
    • B
    • C
    • Db
    • D
    • Eb
    • E
    • F
    • F#
    • G
    • Ab
  • Agregar a la lista

    0 comentarios

    Ver todos los comentarios

    ¿Lograste tocar?

    0 Tocaron 0 Aún no

    ¡Graba un video tocando Algo Errado y envíanoslo!

    00:00 / 00:00
    Outros vídeos desta música
    Repetir Calidad Automático
    Outros vídeos desta música
    00:00 / 00:00
    Automático
    OK