Cifra Club

Censura

DFC

Cifrado: Principal (guitarra y guitarra eléctrica)
tono: D
x - nota abafada

Intro: A

  riff1
e|---------------------------------------|
B|---------------------------------------|
G|---------------------------------------|
D|-----------5-----------------5---8-7-5-|
A|-7---5/7---3---5---7---5/7---3---6-5-3-|
E|-5---3/5-------3---5---3/5-------------|

 Não posso mais falar repressão filho da puta
 estúpida censura nos impede de crescer
 taí pra oprimir tentando nos calar
 estúpida censura sempre a me perseguir

  riff2
e|-------------------------|
B|-------------------------|
G|-------------------------|
D|-8---7-5-----------------|
A|-6---5-3-7-7-7-7-7-7-7-7-|
E|---------5-5-5-5-5-5-5-5-|
 |-------------x-x-x-x-x-x-|

 NÃO CENSURA!!!
 NÃO CENSURA!!!

  (riff1)
 Não posso mais falar repressão filho da puta
 estúpida censura nos impede de crescer
 taí pra oprimir tentando nos calar
 estúpida censura sempre a me perseguir

  (riff2)
 NÃO CENSURA!!!
 NÃO CENSURA!!!

(baixo)

e|---------------------------------|
B|---------------------------------|
G|---------------------------------|
D|---------------------------------|
A|-----------------3-3-3-3-6-6-5-3-|
E|-5-5-5-5-5-5-5-5-----------------|
 |-x-x-x-x-x-x-x-x-x-x-x-x-x-x-x-x-|

 censura moralista atrasa nossa cultura
 o falso moralismo nos impede de crescer

  (riff2)
 NÃO CENSURA!!!
 NÃO CENSURA!!!

 "E para mim um regime democrático autêntico, é um regime democrático... autoritário!"

Final: A
Compositor não encontrado.
Colaboración y revisión:
  • Renato Santos
48 vistas
    • ½ Tono
    • A
    • Bb
    • B
    • C
    • Db
    • D
    • Eb
    • E
    • F
    • F#
    • G
    • Ab
  • Agregar a la lista

    0 comentarios

    Ver todos los comentarios

    ¿Lograste tocar?

    0 Tocaron 0 Aún no

    ¡Graba un video tocando Censura y envíanoslo!

    00:00 / 00:00
    Outros vídeos desta música
    Repetir Calidad Automático
    Outros vídeos desta música
    00:00 / 00:00
    Automático
    OK