Cifra Club

Franchising

DFC

Cifrado: Principal (guitarra y guitarra eléctrica)
tono: G
Intro: F#

x - nota abafada

e|----------------|
B|----------------|
G|--------------5-|
D|-4-4--5--4-4--5-|
A|-4-4--5--4-4--3-|
E|-2-2--3--2-2----|

 Grana, Jesus, exploração e pau no cú
 Dólar, cocaína e lavagem cerebral
 Lucro, mentira no programa da tv
 Tenha um franchising da utopia universal

e|------------------------------------|
B|------------------------------------|
G|------------------------------5-5-5-|
D|-4-4-4-4-4--5-5-5--4-4-4-4-4--5-5-5-|
A|-4-4-4-4-4--5-5-5--4-4-4-4-4--3-3-3-|
E|-2-2-2-2-2--3-3-3--2-2-2-2-2--------|
 |---x---x-x----x-x----x---x-x----x-x-|

 Grana, Jesus, exploração e pau no cú
 Dólar, cocaína e lavagem cerebral
 Lucro, mentira no programa da tv
 Tenha um franchising da utopia universal


 AIDS, macumba, capeta e satanás
 Câncer, amor e impotência sexual
 O mal da sua vida agora irá se acabar

e|---------------------------------|
B|---------------------------------|
G|-------------------5-5-5-5-5-5-5-|
D|-4-4-4-4-4--5-5-4--5-5-5-5-5-5-5-|
A|-4-4-4-4-4--3-3-4--3-3-3-3-3-3-3-|
E|-2-2-2-2-2--3-3-2----------------|
 |---x---x-x----x------------------|

 Tudo então melhora na mentira universal

e|----------------|
B|----------------|
G|--------------5-|
D|-4-4--5--4-4--5-|
A|-4-4--5--4-4--3-|
E|-2-2--3--2-2----|

 Tenha um franchising da universal de Deus

(repete 2x)
Compositor não encontrado.
Colaboración y revisión:
  • Renato Santos
30 vistas
    • ½ Tono
    • A
    • Bb
    • B
    • C
    • Db
    • D
    • Eb
    • E
    • F
    • F#
    • G
    • Ab
  • Agregar a la lista

    0 comentarios

    Ver todos los comentarios

    ¿Lograste tocar?

    0 Tocaron 0 Aún no

    ¡Graba un video tocando Franchising y envíanoslo!

    00:00 / 00:00
    Outros vídeos desta música
    Repetir Calidad Automático
    Outros vídeos desta música
    00:00 / 00:00
    Automático
    OK