Cifra Club

Molecada 666

DFC

Cifrado: Principal (guitarra y guitarra eléctrica)
tono: D
Intro: D   A   D   A   D   A   B

 |------------ 3x ------------|
e|-------------10-----------9-|----|
B|-------10p11---------9p10---|-12-|
G|-10p11----------9p10--------|----|
D|----------------------------|----|
A|----------------------------|----|
E|----------------------------|----|

   D      A       D      A    
Cuidado vocês molecada 666
D                  A
Quando sua hora chegar
B
Deus não vai te perdoar
D            A
Não adinta rezar
D           A
Não adianta se benzer
D            A 
O capeta vai te pegar
B
E vai te comer!

e|---------------------------------|
B|---------------------------------|
G|---------------------------------|
D|-----7---------------------------|
A|-5---5---6/777-6/777-6/777-6/777-|
E|-3-------4/555-4/555-4/555-4/555-|

  666 furada!
  666 fedida!
  666 rasgada!

e|-----------|
B|-----------|
G|-----------|
D|-----7-----|
A|-5---5---9-|
E|-3-------7-|

  666 com chulé!

 |----------------------- 3x ----------------------|----------------------------------------|
e|-------------------------15-12-15-12-15-12-15-12-|-22-21-20-21-22-21-20-21-22-21-20-21-22-|
B|-15-12-15-12-15-12-15-12-------------------------|----------------------------------------|
G|-------------------------------------------------|----------------------------------------|
D|-------------------------------------------------|----------------------------------------|
A|-------------------------------------------------|----------------------------------------|
E|-------------------------------------------------|----------------------------------------|

(repete tudo)

Fim: D   A   D   A   D   A   B

 |------------ 3x ------------|
e|-------------10-----------9-|----|
B|-------10p11---------9p10---|-12-|
G|-10p11----------9p10--------|----|
D|----------------------------|----|
A|----------------------------|----|
E|----------------------------|----|
Compositor não encontrado.
Colaboración y revisión:
  • Renato Santos
76 vistas
    • ½ Tono
    • A
    • Bb
    • B
    • C
    • Db
    • D
    • Eb
    • E
    • F
    • F#
    • G
    • Ab
  • Agregar a la lista

    0 comentarios

    Ver todos los comentarios

    ¿Lograste tocar?

    1 Tocaron 0 Aún no

    ¡Graba un video tocando Molecada 666 y envíanoslo!

    00:00 / 00:00
    Outros vídeos desta música
    Repetir Calidad Automático
    Outros vídeos desta música
    00:00 / 00:00
    Automático
    OK