Cifra Club

O PM e a Tv

DFC

Cifrado: Principal (guitarra y guitarra eléctrica)
tono: C
(* - nota abafada)

  (intro 2x)
E|----------------------|
B|----------------------|
G|----------------------|
D|------7--10-----------|
A|-2----5--8--2----3--5-|
E|-0----------0----1--3-|

  Eu sou o PM, eu sou a lei
  Sou a autoridade para proteger
  Mas nunca pense em desrespeitar
  Desacato é foda vou ter que atirar

E|---------------------|
B|---------------------|
G|---------------------|
D|-------------5-4-5-7-|
A|-2---5-4-2---3-2-3-5-|
E|-0---3-2-0-----------|

  Aprendi tudo na TV
  Ela é tudo que eu queria ser
  Um cara bonitão com uma arma na mão
  Inconsequente, inconsciente só cumprindo meu dever

  (4x)
E|-----------|
B|-----------|
G|-----------|
D|-----------|
A|-2--4--5-4-|
E|-0--2--3-2-|
         * *

  Minha realidade é outra mas eu não me importo!

E|---------------------|
B|---------------------|
G|---------------------|
D|-------------5-4-5-7-|
A|-2---5-4-2---3-2-3-5-|
E|-0---3-2-0-----------|

  Eu queria ser o "Tira da Pesada"
  Só me resta matar igual ao Rambo
  A 3.80 é o meu orgulho
  Meu salário não paga nem as balas

  (4x)
E|-----------|
B|-----------|
G|-----------|
D|-----------|
A|-2--4--5-4-|
E|-0--2--3-2-|
         * *

  Minha realidade é outra mas eu não me importo!
Compositor não encontrado.
Colaboración y revisión:
  • Renato Santos
22 vistas
    • ½ Tono
    • A
    • Bb
    • B
    • C
    • Db
    • D
    • Eb
    • E
    • F
    • F#
    • G
    • Ab
  • Agregar a la lista

    0 comentarios

    Ver todos los comentarios

    ¿Lograste tocar?

    0 Tocaron 0 Aún no

    ¡Graba un video tocando O PM e a Tv y envíanoslo!

    00:00 / 00:00
    Outros vídeos desta música
    Repetir Calidad Automático
    Outros vídeos desta música
    00:00 / 00:00
    Automático
    OK