Cifra Club

Respeito É Bom e Conserva Os Dentes

DFC

Cifrado: Principal (guitarra y guitarra eléctrica)
tono: G
x - nota abafada

Intro

e|----------------|
B|----------------|
G|----------------|
D|---------5------|
A|-2---4-5-3---2~-|
E|-0---2-3-----0~-|

e|-----------|
B|-----------|
G|-----------|
D|---------5-|
A|-2---4-5-3-|
E|-0---2-3---|

 Seja o que for, ou o que eu faça
 Sempre tem um otário para me atrapalhar
 Movido pela inveja ou puro egoísmo
 Tenta me atrapalhar, falso filho da puta

e|-------------------------------------|
B|-------------------------------------|
G|-------------------------------------|
D|-2~--2-2-2-2-2-2-2-2-2-2-2-2-2-2-2-2-|
A|-2~--2-2-2-2-2-2-2-2-2-2-2-2-2-2-2-2-|
E|-0~--0-0-0-0-0-0-0-0-0-0-0-0-0-0-0-0-|
 |-----x-x-x-x-x-x-x-x-x-x-x-x-x-x-x-x-|

e|--------------------------|
B|--------------------------|
G|--------------------------|
D|------------5-------------|
A|-2--4-4-5-5-3--2--4-4-5-5-|
E|-0--2-2-3-3----0--2-2-3-3-|
 |----x-x-x-x-------x-x-x-x-|


 Não venha me tirar pra poder falar besteira
 Cale a boca imbecil, vá cuidar da sua vida
 Eu não te devo nada, a menor satisfação
 Então olhe pra você, cale a boca seu cuzão

e|-----------|
B|-----------|
G|-----------| (4x)
D|---------5-|
A|-2---4-5-3-|
E|-0---2-3---|

Final: Em
Composición de D.F.C
Colaboración y revisión:
  • Renato Santos
23 vistas
    • ½ Tono
    • A
    • Bb
    • B
    • C
    • Db
    • D
    • Eb
    • E
    • F
    • F#
    • G
    • Ab
  • Agregar a la lista

    0 comentarios

    Ver todos los comentarios

    ¿Lograste tocar?

    1 Tocaron 0 Aún no

    ¡Graba un video tocando Respeito É Bom e Conserva Os Dentes y envíanoslo!

    00:00 / 00:00
    Outros vídeos desta música
    Repetir Calidad Automático
    Outros vídeos desta música
    00:00 / 00:00
    Automático
    OK