Cifra Club

Angeldust

Di-Rect

Cifrado: Principal (guitarra y guitarra eléctrica)
Selo Cifra Club: esta cifra foi revisada para atender aos critérios oficiais da nossa Equipe de Qualidade.
tono: Bm
Intro tab:
E|------------------------------------------------------------------------|
B|--5-5-3-1----5-3-1-----5-8*---------------------------------------------|
G|-------------------0-2--------------------------------------------------|
D|------------------------------------------------------------------------|
A|------------------------------------------------------------------------|
E|------------------------------------------------------------------------|
This is played twice, the 8th on the B snare is played the second time only.

This:
E|--5-5-3-1----5-3-1---|
can also be played with an added note:
E|--5-5p4p3-1--5p4p3-1-|
to get that extra sound they've got.

At the same time, another guitar plays: C Em F F twice.

Verse 1:
       C   Em  F   G
E|---0---0---1---3---|
B|---1---0---1---3---|
G|---0---0---2---0---|
D|---2---2---3---0---|
A|---3---2---3---2---|
E|---x---0---1---3---|

       C            Em                  F
Many times as you slept I've told you this
            C              Em                F
You're the one, you're my world, hopes and dreams
         G                 F
I have cried sweet sweet tears
         G                  F
Liquid words ran down my cheecks

Chorus:
       Ab or  Ab
E|---4------8----| using that first one is easier, as you can slide it down
B|---4------9----| to the 3rd fret for a G, and then to the 1st fret for an
G|---5------8----|
D|---6------6----|
A|---6------x----|
E|---4------x----|

   C            Em   F  
I thank you, my only star
                    C         Em      F  
Every day you bring me your precious love
   Ab           G  
A light in the dark
       F
Angel Dust

Interlude: 
E|-----------------------------------------------|
B|----8-6-5----8-6-5--------6-5-8--6-5-8---------|
G|--5--------4--------44s5---------------44s5----|
D|-----------------------------------------------|
A|-----------------------------------------------|
E|-----------------------------------------------|


Verse 2:

       C      Em                  F
Livin'in ecstasy with you next to me
         C           Em             F
All I know, without you I'd come undone
         G                   F
Liquid words would come out wrong
           G               F
You're my drug, my rising sun

Chorus:
         C       Em    F
I thank you, my only star
                    C         Em      F  
Every day you bring me your precious love
   Ab           G  
An angel was sent
       F
Angel Dust

Bridge:
       D   F#m  Bm
E|---2---2----7---|
B|---3---2----7---|
G|---2---2----7---|
D|---0---4----8---|
A|---x---4----8---|
E|---x---2----7---|

D           F#m           Bm        
Let's get it on together alone
D           F#m                Bm 
So much to live, reveal the unknown



Ending:

         D       F#m    G
I thank you, my shining star
                   D   F#m         G    
Every day you take me around the world
Em     A     D       F#m    G     
Every day I need my Angel Dust

     Bm          A             G
The magic comes right of your hand
      Bm          A            D
I'll follow your steps in the sand...
Otros videos de esta canción
      • ½ Tono
      • Am
      • Bbm
      • Bm
      • Cm
      • C#m
      • Dm
      • Ebm
      • Em
      • Fm
      • F#m
      • Gm
      • G#m
    • Agregar a la lista

    Afinación de cifrado

    Afinador online

      OK