Cifra Club

Why Did It Come To An End

Di-Rect

Cifrado: Principal (guitarra y guitarra eléctrica)
Selo Cifra Club: esta cifra foi revisada para atender aos critérios oficiais da nossa Equipe de Qualidade.
tono: Bb
intro
E|---------------------------------------------------------------------------| |-----------|
B|---------------------------------------------------------------------------| |-----------|
G|-----0-------0--------0----------0--------0-------0--------0---------0-----| |------0----|
D|---8---8---8---8---10---10----12---12---8---8---8---8---10---10---10---10--| |---10---10-|
A|-5-------6-------8---------10---------5-------6-------8---------8----------| |-8---------|
E|---------------------------------------------------------------------------| x6 then|-----------|x2

chorus 
E|-----------------------------| |----|
B|-----------------888-88-88---| |----|
G|-333-33--111-11--888-88-88-7-| |-7--|
D|-555-55--333-33--888-88-88-8-| |-8--|
A|-555-55--333-33--666-66-66-6-| |-6--|
E|-333-33--111-11--------------| x4 |----|


repeat intro, about 2 times, then play chorus again. 


bridge - strum each chord a few times  'And now I'm overdone'
E|--------|
B|-10--8--|
G|-10--8--|
D|-10--8--|
A|-8---6--|
E|--------|
Otros videos de esta canción
    10 exhibiciones
      • ½ Tono
      • A
      • Bb
      • B
      • C
      • Db
      • D
      • Eb
      • E
      • F
      • F#
      • G
      • Ab
    • Agregar a la lista

    Afinación de cifrado

    Afinador online

      OK