Enviar cifraEntrar

A Ele a Glória

Diante do Trono

Acordes: Principal
reproducciones 1.548
Tono: C
Intro: Em  C  D  Em  Em  C  D  Em  D Em  D  Em

Intro:


       Em
E|---------0--------7-----5-----3----0-|
B|-------------0-----------------------|
G|-----0-------------------------------|
D|-------------------------------------|
A|-------------------------------------|
E|--0---------------0-----0-----0------|


       C                          D
E|---0----------0---------3----3--------2---2---0-------0-----| 
B|---1-------1-----1--------------------3-----------3---------|
G|--------0-----------0--------------2------------------------|
D|--------------------------------0---------------------------|
A|---3--------------------3----3------------------------------|
E|------------------------------------------------------------|


       Em                   Em
E|------------0----------3----0----------|
B|---------0------0------0----0----------|
G|------0----------------0----0----------|
D|-----------------------2----2----------|
A|-----------------------2----2----------|
E|--0--------------------0----0----------|


Em                  C
Porque Dele e por Ele
     D9                  Em
Para Ele são todas as coisas
Em                  C
Porque Dele e por Ele
     D4  D   D9               Em
Para Ele são todas as coisas

Refrão:


E|------------------------------------------------------------------------------|
B|-8-10-12/13-12-10----8-10-12-12-10-8-10-8-7-8----5-7-8-8-7/10-8-7--7/8/7--3-5-|
G|------------------------------------------------------------------------------|
D|------------------------------------------------------------------------------|
A|------------------------------------------------------------------------------|
E|------------------------------------------------------------------------------|


        C   C/B   D9
A Ele a Gló______ria
        G    D/F# Em
A Ele a Gló______ria
        C   B7
A Ele a Glória
             Em
Pra sempre, amém

Em                   C
   Quão profundas riquezas
     D9                   Em
O saber e o conhecer de Deus
           C
Quão insondáveis
       D4  D D9           Em
Seus juízos e Seus caminhos

        C   C/B  D
A Ele a Gló_____ria
        G   D/F#  Em
A Ele a Gló  -    ria
        C   B7
A Ele a Glória
             Em
Pra sempre, amém

Modulação: C  Bm7  C  D  Eb  F

Solo guitara:
        


E|-------------------------|------------------------10--------------------------------------|
B|----/12---10---8---------|--8---10---8---10/12---------12---10---8----8h10---8------------|
G|-------------------9--9--|-------------------------------------------------------9---9----|
D|-------------------------|----------------------------------------------------------------|
A|-------------------------|----------------------------------------------------------------|
E|-------------------------|----------------------------------------------------------------|


E|----------------------------------------10--10--|----8/10---8----------------------------------|
B|----------8----10---8-----8/12----10------------|---------------11----8----8---8/10--10--10\---|
G|----9-------------------------------------------|----------------------------------------------|
D|------------------------------------------------|----------------------------------------------|
A|------------------------------------------------|----------------------------------------------|
E|------------------------------------------------|----------------------------------------------|



 Bb  Cm  Dm7  Eb  F
A   Ele a   glória
         Bb   F/A   Gm7
A Ele a glória
        Eb7M     Dm7
A Ele a glória
             Gm
Pra sempre, amém

Gm F  D  Eb7M    Dm7
A Ele a glória
Eb7M    Dm7  Eb7M  Dm7
Glória, glória
              G
Pra sempre, amém
  • 1
  • 2
  • 3
  • 4
  • 5
  • 6
  • 7
  • 8
  • 9
  • 10
  • 11
  • 12

    0 comentarios

      mostrar mas comentarios

      ¿Conseguiste tocar?

      50tocaron1aún no

      ¡Grave un vídeo tocando A Ele a Glória y envie para nosotros!

      00:00 / 00:00
      outros vídeos desta música
      repetirqualidadeautomática
      • automática
      Outro vídeos desta música
        00:00 / 00:00
        automática
        • automática
        cerrarplay/pause subir/bajar velocidad
          acordes
          cerrar
          OK
          Feedback