Cifra Club

A Ele a Glória

Diante do Trono

Cifrado: Fingerstyle (guitarra y guitarra eléctrica)
tono: G
Intro:

     Em
E|---------0--------7-----5-----3----0-|
B|-------------0-----------------------|
G|-----0-------------------------------|
D|-------------------------------------|
A|-------------------------------------|
E|--0---------------0-----0-----0------|

     C                          D
E|---0----------0---------3----3--------2---2---0-------0-----| 
B|---1-------1-----1--------------------3-----------3---------|
G|--------0-----------0--------------2------------------------|
D|--------------------------------0---------------------------|
A|---3--------------------3----3------------------------------|
E|------------------------------------------------------------|
     Em                   Em
E|------------0----------3----0----------|
B|---------0------0------0----0----------|
G|------0----------------0----0----------|
D|-----------------------2----2----------|
A|-----------------------2----2----------|
E|--0--------------------0----0----------|

Verso:

    Em                                         C
E|----------0----0----0-----2--2h3----3---|--------------0---2-2h3---3--------|
B|---------------------------------------|----------1-------------------------|
G|-------0-------------------------------|-------0----------------------------|
D|---------------------------------------|------------------------------------|
A|---------------------------------------|---3---------------3---3---3--------|
E|----0---------------0-----0---0----0---|------------------------------------|

     D                                          (Continua no dedilhado em Em e repete)
E|-------------2-----0-----0----------0--|
B|-------------------------------3-------|
G|--------2------------------------------|
D|----0--------0-----0-----0-------------|
A|---------------------------------------|
E|---------------------------------------|

Refrão: 

      Em                C                                         D
E|----3----5---5/7-----8----------8---------7--------7------|----5---------5-----------------
B|---------------------8-----8---------8----7---7--------7--|----7----7---------7------------
G|----------------------------------------------------------|--------------------------------
D|----------------------------------------------------------|--------------------------------
A|----------------------------------------------------------|----5---------------------------
E|----0----0----0------8--------------------7---------------|--------------------------------

                            G           D/F#             Em
E|---2---3----3/5----|----7----5--------5---------------3-------3------|
B|-------------------|--------------8-------8---7-----------0-------0--|
G|-------------------|-------------------------------------------------|
D|---0---0-----0-----|----5----5--------4---4---4-------2--------------|
A|-------------------|-------------------------------------------------|
E|-------------------|-------------------------------------------------|

                         C                                 B                                       Em
E|-----0----2----3------3-------3-------3-------3---------2--------2---2---2h3----2--------0---|
B|--------------------------------------------------------0----0----------------------3--------|
G|---------------------------------------------------------------------------------------------|
D|-----2----2----2-----------------------------------------------------------------------------|
A|----------------------3---3-------3-------3--------3----2------------2----2------------------|
E|---------------------------------------------------------------------------------------------|
Composición de Ana Paula Valadão
Colaboración y revisión:
  • Willian Ferreira
98 vistas
  • Simplificar cifrado
    • ½ Tono
    • A
    • Bb
    • B
    • C
    • Db
    • D
    • Eb
    • E
    • F
    • F#
    • G
    • Ab
  • Agregar a la lista

    0 comentarios

    Ver todos los comentarios
    00:00 / 00:00
    Otros videos de esta canción
    Repetir Calidad Automático
    Otros videos de esta canción
    00:00 / 00:00
    Automático
    OK