Cifra Club

A Ele a Glória

Diante do Trono

Tab de bajo: Principal
G|------------------------------------------------------------------------------|
D|------------------------------------------------------------------------------|
A|------------------------------------------------------------------------------|
E|---------------------------------------10\-----0--------------0-----0---------|
 
Verso - 2x:

          Quão profundas riquezas              O saber e o conhecer de Deus
G|--------------------------------------------------------------------------------|
D|--------------------------------------------------------------------------------|
A|---------------------------3----3--3----------------5---------5--5--------------|
E|---0---------0---0---------------------------------------------------------0----|
 
               Quão insondáveis                 Seus juízos e Seus caminhos
G|--------------------------------------------------------------------------------|
D|--------------------------------------------------------------------------------|
A|---------------------3---3----3--3--------------------5------5--5---------------|
E|-0---0----------3h5----5----------------------------------------------------0---|
 
          A  Ele a Gló_________ria            A  Ele a Gló_________ria   *Repita o E até o proximo "A Ele a glória*
G|--------------------------------------------------------------------------------|
D|---------------------------------------------------4----------------------------|
A|-------------------3---3-2-----5---------5---5h7--------------------------------|
E|---------3h5---2----------------------------------------3---3-2---2--0----------|
 
           A  Ele a Gló__________ria       Pra sempre, amém...            
G|--------------------------------------------------------------------------------|
D|--------------------------------------------------------------------------------|
A|----------------3---3----3-3----2--------2---2----------------------------------|
E|---0---0h5--------5-------------------------------------------0-----------------|

Modulação: C  Bm7  C  D  Eb  F

Muda o tom para Gm

       A    Ele a    Gló_________ria          A  Ele a Gló_________ria
G|--------------------------------------------------------------------------------|
D|--------------------------------------------------------------------------------|
A|-----1----3---5------6---6-5-----8------8---8-----------------------------------|
E|------------------------------------------------------6----6--5----5--3---------|
 
          A  Ele a   Gló__________ria       Pra sempre, amém...            
G|---------------------------------------------------------------------------------|
D|---------------------------------------------------------------------------------|
A|------------3---6---3-------6------6--6------5--------5---5----------------------|
E|---3---3----------------------------------------------------------------------3--|
Composición de Ana Paula Valadão
Colaboración y revisión:
  • Willian Ferreira
80 vistas

0 comentarios

Ver todos los comentarios
00:00 / 00:00
Outros vídeos desta música
Repetir Calidad Automático
Outros vídeos desta música
00:00 / 00:00
Automático
OK