Cifra Club

Aprenda

Águas Purificadoras

Diante do Trono

Tablatura: Principal (guitarra)
tono: D
[Intro] D  Em/D

                     D
E|-----------0------2-----2------------------|
B|------3------------------------------------|
G|-----------------------------2-------------|
D|------0-----------0------------------------|
A|-------------------------------------------|
E|-------------------------------------------|

                     Em/D
E|----------2---3---------------------3------|
B|------5-----------5----5---------------5---|
G|------------------------------4------------|
D|------0-----------0------------------------|
A|-------------------------------------------|
E|-------------------------------------------|

                     Em/D
E|----------2---3---------------------3------|
B|------5-----------5----5---------------5---|
G|------------------------------4------------|
D|------0-----------0------------------------|
A|-------------------------------------------|
E|-------------------------------------------|

[Primeira Parte]

D                  Em/D
Existe um rio, Senhor
  D                      Em/D   D/F#
Que flui do teu grande amor
G                     D/F#
Águas que correm do trono
G          Em         A4    A    G/A
Águas que curam, que limpam

 D                 Em/D
Por onde o rio passar
 Bm7              A4    A   D/F#
Tudo vai transformar
      G               D/F#
Pois leva a vida do próprio Deus
        G    Em7  A4      A     G/B     A/C#
E este rio está  neste lugar

[Refrão]

  D                 G/D     D      D/F#
Quero beber do teu rio, Senhor
   G         D/F#         Em7      A
Sacia minha sede, lava o meu interior
     Bm7               G      A
Eu quero fluir em tuas águas
     Bm7    F#m7       G
Eu quero beber da tua fonte
                A4     A
Fonte de águas vivas

         G/A       A   D
Tu és a fonte, Senhor

( Em/D  D  Em/D )

[Primeira Parte]

D                  Em/D
Existe um rio, Senhor
  D                      Em/D
Que flui do teu grande amor
G                     D/F#
Águas que correm do trono
G          Em         A4    A    G/A
Águas que curam, que limpam

 D                 Em/D
Por onde o rio passar
 Bm7              A4    A
Tudo vai transformar
      G               D/F#
Pois leva a vida do próprio Deus
        G     Em7  A4      A     G/B     A/C#
E este rio está  neste lugar

[Refrão]

  D                 G/D     D      D/F#
Quero beber do teu rio, Senhor
   G         D/F#         Em7      A
Sacia minha sede, lava o meu interior
     Bm7               G      A
Eu quero fluir em tuas águas
     Bm7    F#m7       G
Eu quero beber da tua fonte
                A4     A
Fonte de águas vivas

  D                 G/D     D      D/F#
Quero beber do teu rio, Senhor
   G         D/F#         Em7      A
Sacia minha sede, lava o meu interior
     Bm7               G      A
Eu quero fluir em tuas águas
     Bm7    F#m7       G
Eu quero beber da tua fonte
                A4     A
Fonte de águas vivas

         G/A       A   D
Tu és a fonte, Senhor

 G/D            D   G/D
Tu és o rio Senhor
                  Bm   A
Tu és a fonte Senhor
                G   A
Tu és o rio Senhor
                  D  D4  D
Tu és a fonte Senhor
Composição de Ana Paula Valadão
975 reproducciones
  • Simplificar cifra
    • ½ Tono
    • A
    • Bb
    • B
    • C
    • Db
    • D
    • Eb
    • E
    • F
    • F#
    • G
    • Ab
  • Adicionar à lista

    0 comentarios

    Ver todos os comentários
    00:00 / 00:00
    outros vídeos desta música
    repetir qualidade Automático
    Outros vídeos desta música
    00:00 / 00:00
    Automático
    OK