Cifra Club

Canção do Apocalipse

Diante do Trono

Cifrado: Principal (guitarra y guitarra eléctrica)
Selo Cifra Club: esta cifra foi revisada para atender aos critérios oficiais da nossa Equipe de Qualidade.
tono: G
[Intro] D

[Primeira Parte]

                   Am7
Digno é o Cordeiro     que foi morto
C9                  G9
   Santo, Santo Ele é
D9                 Am7
   Um novo cântico     ao que se assenta
C9                   G9
   Sobre o trono do céu

D9                    Am7
   Digno é o Cordeiro     que foi morto
C9                  G
   Santo, Santo Ele é
D9                 Am7
   Um novo cântico     ao que se assenta
C9                   G
   Sobre o trono do céu

[Refrão]

D9
   Santo, Santo, Santo
Am7
    Deus Todo Poderoso
C9                      G
   Que era e é e há de vir
D9
   Com a criação eu canto
Am7
    Louvores ao Rei dos reis
C9
   És tudo para mim
  G           D9  
E eu Te adorarei

[Solo] Am7  C9  G 

[Tab - Solo]

Parte 1 de 2
                    Am7
E|--------------------------------------|
B|--------7h8p7-------------8p7-----8p7-|
G|--7--7---------7--7/9--9-------9------|
D|--------------------------------------|
A|--------------------------------------|
E|--------------------------------------|

Parte 2 de 2
           C9             G  
E|--------------------------------------|
B|-------------------------------8--7---|
G|-7--9\7--7-----5---4h5--7---7---------|
D|--------------------------------------|
A|--------------------------------------|
E|--------------------------------------|

[Segunda Parte] 

D9              Am7
   Está vestido     do arco-íris
C9                    G
   Sons de trovão, luzes, relâmpagos
D9
   Louvores, honra e glória
Am7
    Força e poder pra sempre
C9                     G
   Ao único Rei eternamente

[Refrão]

D9
   Santo, Santo, Santo
Am7
    Deus Todo Poderoso
C9                      G
   Que era e é e há de vir
D9
   Com a criação eu canto
Am7
    Louvores ao Rei dos reis
C9
   És tudo para mim
  G           D9  
E eu Te adorarei  

[Solo 2] Am7  C9  G 

[Tab - Solo 2]

Parte 1 de 3
                      Am7
E|--------------------------------------|
B|-----7b8--7--7h8p7-------8p7----------|
G|--7-----------------7/9-------9-7-7/9-|
D|--------------------------------------|
A|--------------------------------------|
E|--------------------------------------|

Parte 2 de 3
   C9                         G 
E|--------------------------------------|
B|-13--12--10-----12h13-12h13-15b17r15--|
G|------------12------------------------|
D|--------------------------------------|
A|--------------------------------------|
E|--------------------------------------|

Parte 3 de 3
E|-------------5------------------------|
B|-7b8r7b8------------------------------|
G|--------------------------------------|
D|--------------------------------------|
A|--------------------------------------|
E|--------------------------------------|

[Terceira Parte]

D9              Am7
   Maravilhado,     extasiado
C9                   G   
   Eu fico ao ouvir Teu nome

[Solo 3] Am7  F  C9  G 
         Am7  F  C9  G 

[Tab - Solo 3]

        Am7     F         C9      G
E|--------------------------------------|
B|--------------------------------------|
G|----4-5-----4-5--5-4------------------|
D|-7-------7------------7-5-----5-5-----|
A|---------------------------7----------|
E|--------------------------------------|

                                      Am7
E|------------------------0-----5--7--8-|
B|---------------------------6----------|
G|-4h5p4----4--5--4--5--7---------------|
D|-------7------------------------------|
A|--------------------------------------|
E|--------------------------------------|

          F              C9      G
E|--5--7--8-----8--7--5-----------------|
B|-----------------------8--5/8--8------|
G|--------------------------------------|
D|--------------------------------------|
A|--------------------------------------|
E|--------------------------------------|

D9              Am7
   Maravilhado,     extasiado
C9                   G   
   Eu fico ao ouvir Teu nome
D9
   Jesus, Teu nome é força
Am7
    É fôlego de vida
C9                  G 
   Misteriosa água viva 

[Solo 4]  Am7  F  C9  G 
          Am7  F  C9  G 

[Tab - Solo 4]

Parte 1 de 4
          Am7            F
E|--------------------------------------|
B|--------------------------------------|
G|-----4--5--5--5-----4--5--5--5--------|
D|--7--------------7--------------------|
A|--------------------------------------|
E|--------------------------------------|

Parte 2 de 4
           C9             G
E|--------------------------------------|
B|--------------------------------------|
G|-5p4-----------------5--5-------------|
D|------7--5--5--5--7-------------------|
A|--------------------------------------|
E|--------------------------------------|

Parte 3 de 4
                   Am7            F
E|--5--7b8r7p5-----8--8--8--5--7--8-----|
B|--------------------------------------|
G|--------------7-----------------------|
D|--------------------------------------|
A|--------------------------------------|
E|--------------------------------------|

Parte 4 de 4
                           C9       G
E|-10b12r10--8-----8--7--5--------------|
B|-------------------------8--5--8--8---|
G|--------------------------------------|
D|--------------------------------------|
A|--------------------------------------|
E|--------------------------------------|

[Refrão]

D9
   Santo, Santo, Santo
Am7
    Deus Todo Poderoso
C9                      G
   Que era e é e há de vir
D9
   Com a criação eu canto
Am7
    Louvores ao Rei dos reis
C9
   És tudo para mim
  G             
E eu Te adorarei

D9
   Santo, Santo, Santo
Am7
    Deus Todo Poderoso
C9                      G
   Que era e é e há de vir
D9
   Com a criação eu canto
Am7
    Louvores ao Rei dos reis
C9
   És tudo para mim
  G             
E eu Te adorarei

D9
   Santo, Santo, Santo
Am7
    Deus Todo Poderoso
C9                      G
   Que era e é e há de vir
D9
   Com a criação eu canto
Am7
    Louvores ao Rei dos reis
C9
   És tudo para mim
  G           D9      
E eu Te adorarei
Otros videos de esta canción
    2.589.800 exhibiciones
    • Simplificar cifrado
      • ½ Tono
      • A
      • Bb
      • B
      • C
      • Db
      • D
      • Eb
      • E
      • F
      • F#
      • G
      • Ab
    • Agregar a la lista

    Afinación de cifrado

    Afinador online

      OK