Cifra Club

Creio

Diante do Trono

Tablatura: Principal
reproducciones 209
Tono: A
CAPOTRASTE 7º CASA PARA FACILITAR OS ARRANJOS (OBS.: ACORDES E NOTAS/CASAS NÃO ESTÃO BASEADOS NO CAPOTRASTE, E SIM NA AFINAÇÃO NORMAL).
*NAS PARTES QUE CITEI "EM SILÊNCIO", OU "APENAS PIANO", A GUITARRA NÃO ENTRA, PORÉM O VIOLÃO PODE SEGUIR A CIFRA.

INTRODUÇÃO (APENAS PIANO) F#m, D, A, E

VERSO 1 (APENAS PIANO)

   F#m          A               D       Bm              F#m          A
NA DOR, NA AFLIÇÃO, QUANDO NÃO VEJO SOLUÇÃO, DIGO A MIM MESMO, MINH’ALMA ESPERA EM DEUS,
          D                             Bm
ABRO MEUS LÁBIOS E CREIO, MESMO CONTRA A ESPERANÇA.

PRÉ-REFRÃO

 A                          Bm
CREIO EM UM DEUS | PRA QUEM TUDO É POSSÍVEL,
E|-12----12-12----12-|      E|-10----10-9----10-|
B|----10-------10----|      B|----10------10----|
G|-------------------|      G|------------------|

 A                          Bm
CREIO EM UM DEUS | QUE TUDO PODE MUDAR,
E|-12----12-12----12-|      E|-10----10-9----10-|
B|----10-------10----|      B|----10------10----|
G|-------------------|      G|------------------|

 D                           F#m
CREIO EM UM DEUS | QUE FEZ O CÉU, A TERRA E O MAR,
E|----10----9----10-|        E|------12----12-|
B|-10----10---10----|        B|-9-10----10----|
G|------------------|        G|---------------|

D                         E
TODO PODEROSO,    MAS É FIEL PRA SE IMPORTAR,
E|----10----9----10-|   E|----12----12-|
B|-10----10---10----|   B|-12----12-12-|
G|------------------|   G|-------------|

1° REFRÃO

 A                   D                  A/C#                 E
COMIGO, SE IMPORTA COMIGO | SE IMPORTA COMIGO,

E|----12----|       E|----12----|        E|----12----|  E|---12----|
B|-10----12-|       B|-10----12-|        B|-10----12-|  B|-9----12-|
G|----------|       G|----------|        G|----------|  G|---------|

             A                  D                 A/C#                     E
SE IMPORTA COMIGO, SE IMPORTA COMIGO, SE IMPORTA COMIGO.

             E|----12----|      E|----12----|      E|----12----|        E|-12-|
             B|-10----12-|      B|-10----12-|      B|-10----12-|        B|-12-|
             G|----------|      G|----------|      G|----------|        G|----|

INTRODUÇÃO

        F#m7                                 D
E|-------------9-------9-|      E|-------------9-------9-|
B|----10----12---12------|2x    B|----10----12---12------|2x
G|-11----11---------11---|      G|-----------------------|
D|-----------------------|      D|-12----12---------12---|

        A                                  E
E|-----------9------9--|        E|----------12------12-|
B|---10---12---12------|2x      B|---9---12----12------|2x
G|-9----9---------9----|        G|-9---9----------9----|
D|---------------------|        D|---------------------|

VERSO 1
F#m                                       A9
NA DOR...                       ...NA AFLIÇÃO
E|-------------9-------9-|              E|-----------9------9--|
B|----10----12---12------|2x            B|---10---12---12------|2x
G|-11----11---------11---|              G|-9----9---------9----|
D|-----------------------|              D|---------------------|

           A/D       Bm
QUANDO NÃO VEJO SOLUÇÃO
            E|-------------9-------9-|
            B|----10----12---12------|4x
            G|-----------------------|
            D|-12----12---------12---|

            F#m                                                          A9
DIGO A MIM MESMO...                                             ...MINH’ALMA ESPERA EM DEUS
           E|-------------9-------9-|                                   E|-----------9------9--|
           B|----10----12---12------|2x                                 B|---10---12---12------|2x
           G|-11----11---------11---|                                   G|-9----9---------9----|
           D|-----------------------|                                   D|---------------------|

          A/D                            Bm
ABRO MEUS LÁBIOS E CREIO, MESMO CONTRA A ESPERANÇA.
          E|-------------9-------9-|
          B|----10----12---12------|4x
          G|-----------------------|
          D|-12----12---------12---|

PRÉ-REFRÃO

A                                                   Bm
CREIO EM UM DEUS...                     ...PRA QUEM TUDO É POSSÍVEL,
E|-------------9-------9-|                          E|-------------9-------9-|  
B|----10----12---12------|2x                        B|----10----12---12------|2x
G|-----------------------|                          G|-11----11---------11---|
D|-12----12---------12---|                          D|-----------------------|


A                                                   Bm
CREIO EM UM DEUS...                     ...QUE TUDO PODE MUDAR
E|-----------9------9--|                            E|-------------9-------9-|  
B|---10---12---12------|2x                          B|----10----12---12------|2x
G|-9----9---------9----|                            G|-----------------------|
D|---------------------|                            D|-12----12---------12---|

A                                                    F#m
CREIO EM UM DEUS...                     ...QUE FEZ O CÉU, A TERRA E O MAR,
E|-------------9-------9-|                           E|-------------9-------9-| 
B|----10----12---12------|2x                         B|----10----12---12------|2x
G|-----------------------|                           G|-11----11---------11---|
D|-12----12---------12---|                           D|-----------------------|


A                                                  E
TODO PODEROSO...                        ...MAS É FIEL PRA SE IMPORTAR,
E|-----------9------9--|                           E|----------12------12-|     
B|---10---12---12------|2x                         B|---9---12----12------|2x
G|-9----9---------9----|                           G|-9---9----------9----|
D|---------------------|                           D|---------------------|

REFRÃO

  A                                    D                               A/C#
COMIGO...              ...SE IMPORTA COMIGO...          ...SE IMPORTA COMIGO
E|-----------------------------------------------------------------------------------|
B|-10-10-10-10-10-10-10--------------14-15-15-15-15----------17-17-15-15-14-14-14-14-|
G|-9--9--9--9--9--9--9---------------14-14-14-14-14----------14-14-14-14-14-14-14-14-|
D|-----------------------------------------------------------------------------------|

    E
                                        ...SE IMPORTA...
E|-------------------------------------|
B|-15-15-17-17-17-17-17-17-17-17-17-17-|
G|-14-14-14-14-13-13-13-13-13-13-13-13-|
D|-------------------------------------|

      A                               D                                A/C#
...COMIGO...          ...SE IMPORTA COMIGO...           ...SE IMPORTA COMIGO
E|-----------------------------------------------------------------------------------|
B|-10-10-10-10-10-10-10--------------14-15-15-15-15----------17-17-15-15-14-14-14-14-|
G|-9--9--9--9--9--9--9---------------14-14-14-14-14----------14-14-14-14-14-14-14-14-|
D|-----------------------------------------------------------------------------------|

      E
E|-------------------------------------|
B|-15-15-17-17-17-17-17-17-17-17-17-17-|
G|-14-14-14-14-13-13-13-13-13-13-13-13-|
D|-------------------------------------|



SOLO: F#m, D, A, E 2x – FINALIZA EM D

                     3x
E|-------------------------------17----16-16-16-16-|----------17-17-17-14-14-14-|
B|-------------------14-14-14-15----15-------------|-17-17-17-17-17-17-17-17-17-|
G|-14-14-14-16-16-16-------------------------------|----------------------------|
D|-------------------------------------------------|----------------------------|

E|-------------------|
B|-14-14-14-14-15-14-|
G|-14-14-14-14-14-14-|
D|-------------------|

                     3x
E|-------------------------------17----16-16-16-16-|----------17-17-17-14-14-14-|
B|-------------------14-14-14-15----15-------------|-17-17-17-17-17-17-17-17-17-|
G|-14-14-14-16-16-16-------------------------------|----------------------------|
D|-------------------------------------------------|----------------------------|

E|----------------|
B|-14-14-14-15-15-|
G|-14-14-14-14-14-|
D|----------------|

OUTRO (1º PARTE EM SILÊNCIO)

D          F#m              D     F#m
CREIO, EU CREIO ATÉ O FIM. CREIO, AQUI NÃO É O FIM.

D          F#m
CREIO, EU CREIO ATÉ O FIM.

E|-------|             E|----------------------12-12-12-12-12-12-12-12-12-12-|
B|-9--10-|21x          B|-12-12-9--9--10-10-10-10-10-10-10-10-10-10-10-10-10-|
G|-11-11-|             G|-11-11-11-11-11-11-11-------------------------------|
D|-------|             D|----------------------------------------------------|

D                  F#m
CREIO...        ...AQUI NÃO É O FIM.

E|-------|                      E|----------------------12-12-12-12-12-12-12-12-|
B|-9--10-|21x                   B|-12-12-9--9--10-10-10-10-10-10-10-10-10-10-10-|
G|-11-11-|                      G|-11-11-11-11-11-11-11-------------------------|
D|-------|                      D|----------------------------------------------|

D                                           Bm
E SE                    -EU-     -NÃO-     -VER-               -MINHA-            -VI-

E|--------------------------------------------------------------------------------------|
B|----------------------9-9-9-9-10-10-10-10----------------------9-9-9-9-10/15-15-15-15-|
G|-11-11-11-11-11-11-11---------------------11-11-11-11-11-11-11------------------------|


F#m                                              E
TÓRIA AQUI                                     COROA DE GLÓRIA

E|------------------------------------------------------------------------------------|
B|-14-14-14-14-14-14-14-14-9-9-9-9-10-10-10-10-12-12-12-12-12-12-12-12-12-12-12-12-12-|
G|---------------------------------------------9--9--9--9--9--9--9--9--9--9--9--9--9--|

Bm        D                                     F#m        A
CREIO                              É O QUE ME AGUARDA ALI

E|-----------------------------------------------------------|
B|-15-(11x)-17-(6x)-15-(11x)-17-(6x)-14-(11x)-15-15-17-(20x)-|
G|-14-------14------14-------14------14-------14-14-14-------|
D|-----------------------------------------------------------|

         Bm    D                           F#m             A
         CREIO                         EU CREIO ATÉ O FIM

E|-----------------------------------------------------------------|
B|-14-14-15-(11x)-17-(6x)-15-(11x)-17-(6x)-14-(11x)-15-15-17-(20x)-|
G|-14-14-14-------14------14-------14------14-------14-14-14-------|
D|-----------------------------------------------------------------|

         Bm     D                            F#m               A
        CREIO                                AQUI NÃO É O FIM

E|-----------------------------------------------------------------|
B|-14-14-15-(11x)-17-(6x)-15-(11x)-17-(6x)-14-(11x)-15-15-17-(20x)-|
G|-14-14-14-------14------14-------14------14-------14-14-14-------|
D|-----------------------------------------------------------------|

        Bm      D                          F#m             A
        CREIO                          EU CREIO ATÉ O FIM

E|-----------------------------------------------------------------|
B|-15-14-15-(11x)-17-(6x)-15-(11x)-17-(6x)-14-(11x)-15-15-17-(20x)-|
G|-14-14-14-------14------14-------14------14-------14-14-14-------|
D|-----------------------------------------------------------------|

FINAL (APENAS PIANO)

 A                          Bm               A                         Bm
CREIO EM UM DEUS, PRA QUEM TUDO É POSSÍVEL | CREIO EM UM DEUS QUE TUDO PODE MUDAR,
D                           F#m
CREIO EM UM DEUS, QUE FEZ O CÉU, A TERRA E O MAR,
D                      E
TODO PODEROSO, MAS É FIEL PRA SE IMPORTAR...
      A
...COMIGO
Acordes para:

    0 comentarios

      mostrar más comentarios

      ¿Conseguiste tocar?

      17tocaron0aún no

      ¡Graba un vídeo tocando Creio y envianoslo!

      00:00 / 00:00
      outros vídeos desta música
      repetirqualidadeautomática
      Outro vídeos desta música
        00:00 / 00:00
        automática
        OK