Cifra Club

Aprenda

Grande

Diante do Trono

Tablatura: Principal (guitarra)
tono: C
[Primeira Parte]

Am7
    Grande, grande é o Senhor
F
  Grande, grande é o Seu nome
Am7
    Grande, grande é o Senhor
F
  Grande, grande é o Seu nome

   Am7
E|-----3-----3----------3-----3-----3-----------|
B|---1-----1-----1----1-----1-----1-------------|
G|-2-----2-----2----2-----2-----2---------------|
D|----------------------------------------------|
A|----------------------------------------------|
E|----------------------------------------------|

Am7                     C
    Quem foi que fez o céu, a Terra e o mar
              Am7              G
E tudo o que há ao som de Sua voz?
Dm7                     Am7                F
    Quem foi que fez o homem pra ser Seu amigo
           C          G      Am7  Dm
E tudo formou para o Seu louvor?
C         G      Am7  Dm7  C  G
  Para o Seu louvor

[Pré-Refrão]

  G  A   A  G   G  A   A  G  C  A  G  A 
Grande é o Senhor o nosso Deus, todo poderoso
   G  A   A  G   G  A   A  G  C  A  D  A 
Só Ele é Deus na Terra, céu e mar e igual não há

[Riff]

[Parte 1 de 2]

E|----------------------------------------------|
B|----------------------------------------------|
G|----------------------------------------------|
D|----------------------------------------------|
A|--------------------3-------------------------|
E|-3-5--5-3--3-5--5-3---5-3-5-------------------|

[Parte 2 de 2]

E|----------------------------------------------|
B|----------------------------------------------|
G|----------------------------------------------|
D|----------------------------------------------|
A|--------------------3---5---------------------|
E|-3-5--5-3--3-5--5-3---5---5-------------------|

[Refrão]

Am7           C
    Grande, grande é o Senhor
Dm7           F    G          Am7
    Grande, grande é o Seu nome
          C
Grande, grande é o Senhor
Dm7           F    G          Am7
    Grande, grande é o Seu nome

[Segunda Parte]

Am7                  C
    Quem disse a Abraão: "Teus filhos serão
                  Am7              G
como estrelas do céu e a areia do mar?"
Dm7                Am7           F
    Quem fez a Israel para abençoar
                C
As famílias da Terra
       G        Am7  Dm7  C
e aos povos salvar?
       G        Am7  Dm7  C  G
E aos povos salvar

[Terceira Parte]

  Bm7                 Bm7(9)
Quem foi que abriu o mar
                               E
E fez a pés secos Seu povo passar?
Em7               Bm7             G
    Mostrou a Faraó e aos Seu inimigos
              D
Que só Ele é Deus
         A       Bm7  Em7  D
Outro igual não há
         A       Bm7  Em7  D  A
Outro igual não há

[Pré-Refrão]

  A  B   B  A   A  B   B  A  D  B  A  B 
Grande é o Senhor o nosso Deus, todo poderoso
( A  B   B  A   A  B   B  A  D  B  E  B )
Só Ele é Deus na Terra, céu e mar e igual não há

[Riff]

[Parte 1 de 2]

E|----------------------------------------------|
B|----------------------------------------------|
G|----------------------------------------------|
D|----------------------------------------------|
A|--------------------5-------------------------|
E|-5-7--7-5--5-7--7-5---7-5-7-------------------|

[Parte 2 de 2]

E|----------------------------------------------|
B|----------------------------------------------|
G|----------------------------------------------|
D|----------------------------------------------|
A|--------------------5---7---------------------|
E|-5-7--7-5--5-7--7-5---7---7-------------------|

[Refrão]

Bm7           D
    Grande, grande é o Senhor
Em7           G    A          Bm7
    Grande, grande é o Seu nome
          D
Grande, grande é o Senhor
Em7           G    A        Bm7
    Grande, grande é o Seu nome

[Quarta Parte]

C#m7                     C#m7(9)          E/G#
     Quem foi que viu a dor do homem sem Deus
           A                B
E Se entregou pra nos resgatar?
F#m7                 C#m7                A
     Morreu a nossa morte na Cruz do Calvário
         E           B    C#m7  F#m7  E
Mas em três dias ressuscitou
          B    C#m7  F#m7  E9
Jesus Ressuscitou
          B    A
Jesus Ressuscitou
         F#m7  B
Jesus Ressuscitou

[Pré-Refrão]

  A                                     ( A  E/G#  F#m7 )
Grande é o Senhor o nosso Deus, todo poderoso
          B                  
Só Ele é Deus na Terra, céu e mar, igual não há

[Pré-Refrão]

E|----------------------------------------------|
B|----------------------------------------------|
G|----------------------------------------------|
D|----------------------------------------------|
A|-7-6-4----------------------------------------|
E|-------5-5-4----------------------------------|

[Refrão]

A           B
  Grande, grande é o Senhor
C#m7                            A
     Grande, grande  é o Seu nome
          B
Grande, grande é o Senhor
C#m7                            A  B  C#m7
     Grande, grande  é o Seu nome

[Refrão]

E|----------------------------------------------|
B|----------------------------------------------|
G|----------------------------------------------|
D|----------------------------------------------|
A|-6-7------------------------------------------|
E|-----5-4--------------------------------------|

[Quinta Parte]

C#m7                              C#m7(9)
     Quem prometeu voltar pra buscar
                          F#
Um povo santo que Ele salvou?
               C#m7               A
Um novo Céu e Terra, uma santa cidade
        B              C#m7
Onde o mal não vai entrar
                  C#m7
O mal não vai entrar
                  A/C#
O mal não vai entrar
                  C#m7  F#m7  E  B
O mal não vai entrar

[Pré-Refrão]

  A                                     ( A  E/G#  F#m7 )
Grande é o Senhor o nosso Deus, todo poderoso
          B                   
Só Ele é Deus na Terra, céu e mar, igual não há

[Refrão]

A           B
  Grande, grande é o Senhor
C#m7                             A
     Grande, grande  é o Seu nome
          B
Grande, grande é o Senhor
C#m7                            A  B  C#m7
     Grande, grande  é o Seu nome
Composição de Shannon Fogal Wexelberg
Colaboración y revision:
  • deivid dias
  • Eduardo Menezes
221 reproducciones
    • ½ Tono
    • A
    • Bb
    • B
    • C
    • Db
    • D
    • Eb
    • E
    • F
    • F#
    • G
    • Ab
  • Adicionar à lista

    0 comentarios

    Ver todos os comentários
    00:00 / 00:00
    outros vídeos desta música
    repetir qualidade Automático
    Outros vídeos desta música
    00:00 / 00:00
    Automático
    OK