Cifra Club

Me Ama

Diante do Trono

Cifrado: Principal (guitarra y guitarra eléctrica)
Selo Cifra Club: esta cifra foi revisada para atender aos critérios oficiais da nossa Equipe de Qualidade.
tono: A
[Intro] A  D/F#  E  D
        A  D/F#  E  D

[Dedilhado - Intro e Primeira Parte] 

E|------9----------9----------9-------------|
B|---10---10----10---10----10---10----------|
G|-9----------9----------9------------------|
D|------------------------------------------|
A|------------------------------------------|
E|------------------------------------------|

E|-9--9--9--9--9--9-------------------------|
B|-10-10-10-10-10-10------------------------|
G|-9--9--9--9--9--9-------------------------|
D|------------------------------------------|
A|------------------------------------------|
E|------------------------------------------|

E|------9----------9----------9-------------|
B|---10---10----10---10----10---10----------|
G|-7----------7----------7------------------|
D|------------------------------------------|
A|------------------------------------------|
E|------------------------------------------|

E|-9--9--9--9--7--7-------------------------|
B|-10-10-10-10-10-10------------------------|
G|-7--7--7--7--7--7-------------------------|
D|------------------------------------------|
A|------------------------------------------|
E|------------------------------------------|

E|------12----------12----------12----------|
B|---12----12----12----12----12---12--------|
G|-9-----------9-----------9----------------|
D|------------------------------------------|
A|------------------------------------------|
E|------------------------------------------|

E|-12-12-12-12-12-12------------------------|
B|-12-12-12-12-12-12------------------------|
G|-9--9--9--9--9--9-------------------------|
D|------------------------------------------|
A|------------------------------------------|
E|------------------------------------------|

E|------9----------9----------9-------------|
B|---10---10----10---10----10---10----------|
G|-7----------7----------7------------------|
D|------------------------------------------|
A|------------------------------------------|
E|------------------------------------------|

E|-9--9--9--9--7--7-------------------------|
B|-10-10-10-10-10-10------------------------|
G|-7--7--7--7--7--7-------------------------|
D|------------------------------------------|
A|------------------------------------------|
E|------------------------------------------|

[Primeira Parte]

 A
Tem ciúmes de mim
D
O Seu amor é como um furacão
  E             
E eu me rendo 
                       D
Ao vento de Sua misericórdia
   A                
Então, de repente 
                          D
Não vejo mais minhas aflições

Eu só vejo á glória
      E
E percebo quão maravilhoso Ele é
     D
E o tanto que Ele me quer

[Refrão]

A           D
Ô, Ele me amou
          E
Ô, Ele me ama
         D
Ele me amou

[Solo 1] A  D  E  D

[Tab - Solo 1] 

E|------------------------------------------|
B|------------------------------------------|
G|-14~-13~/-6~/-14~-13~/-6~/-14~-13~/-6/14~-|
D|------------------------------------------|
A|------------------------------------------|
E|------------------------------------------|

[Primeira Parte]

 A
Tem ciúmes de mim
D/F#
O Seu amor é como um furacão
  E           
E eu me rendo 
                       D
Ao vento de Sua misericórdia
   A              
Então, de repente 
                          D/F#
Não vejo mais minhas aflições

Eu só vejo á glória
      E
E percebo quão maravilhoso Ele é
     D
E o tanto que Ele me quer

[Refrão]

A           D/F#
Ô, Ele me amou
          E
Ô, Ele me ama
         D
Ele me amou

[Solo 2] A  D  E  D

[Tab - Solo 2] 

E|------------------------------------------|
B|------------------------------------------|
G|-14~-13~/-6~/-14~-13~/-6~/-14~-13~-13b14~-|
D|------------------------------------------|
A|------------------------------------------|
E|------------------------------------------|

[Refrão]

   A           D/F#
Me ama, Ele me ama
       E           D
Ele me ama, Ele me ama
   A           D/F#
Me ama, Ele me ama
       E           D
Ele me ama, Ele me ama

[Segunda Parte]

 A
Somos sua herança e Ele o nosso galardão
 D/F#
Seu olhar de graça nos atrai à redenção
       E                            D
Se a graça é um oceano, estamos afogando

   A
O céu se une à terra, como um beijo apaixonado
     D/F#
Meu coração dispara, em meu peito, acelerado
     E
Não tenho tempo pra perder com ressentimentos
        D
Quando penso que Ele

[Refrão]

   A           F#m
Me ama, Ele me ama
       E           D
Ele me ama, Ele me ama
   A           F#m
Me ama, Ele me ama
       E           D
Ele me ama, Ele me ama

( A  D/F#  E  D )

[Refrão Final]

      A      D/F#
E me salva, me liberta
       E             
Me restaura, me muda
         D
Me transforma
       A
Me perdoa
                D/F#
Me quebra e me faz outra vez
         E
E outra vez, e outra vez
          D
Sem desistir

A            D/F# 
Oh, Ele me amou
        E             D
Oh, Ele ama, Ele me amou
A            D/F# 
Oh, Ele me amou
        E
Oh, Ele ama
         D
Ele me amou
Otros videos de esta canción
    2.103.861 exhibiciones
    • Simplificar cifrado
      • ½ Tono
      • A
      • Bb
      • B
      • C
      • Db
      • D
      • Eb
      • E
      • F
      • F#
      • G
      • Ab
    • Agregar a la lista

    Afinación de cifrado

    Afinador online

      OK