Cifra Club

1x0 Eu

Dibob

Cifrado: Principal (guitarra y guitarra eléctrica)
Já pensou em usar uma coleção de roupas do Cifra Club? Responda as perguntas abaixo e nos ajude nessa missão! →
tono: B
Intro: B F# G#m E 3x

Riff 1
e|----------------------------------------------------------|
B|----------------------------------------------------------|
G|--4444444--66-8-6666666--88-9--8888888--66-8--4444444/3-4-|
D|----------------------------------------------------------|
A|--2222222--44-6-4444444--66-7--6666666--44-6--2222222/1-2-|
E|----------------------------------------------------------|

e|----------------------------------------------------------|
B|----------------------------------------------------------|
G|--4444444--66-8-6666666/9-9-8-6-8888888-66-88-4444444/3-4-|
D|----------------------------------------------------------|
A|--2222222--44-6-4444444/7-7-6-4-6666666-44-66-2222222/1-2-|
E|----------------------------------------------------------|

B F# G#m E 2x
você me perdeu, não percebeu
que não deu valor pra mim
agora é tarde demais, já não te quero mais 
vai ter que aprender a viver assim


G#m              E 
pois quando me tinha não soube cuidar
G#m       D#                     E 
ganhava sempre no seu jogo de amar
            B           F#            E 
e agora vem correndo me pedindo pra voltar
         F#
não vai dar

e|------------------|
B|------------------|
G|------------------|
D|------------------|
A|--4-6-6h7-6-4-1-2-|
E|-2----------------|

base: B F# E F# 2x
solo: 
E|-----------------------------------------------------------------------|
B|--------------------7---------------------------4-5-7------------------|
G|--4--4-6b8--6~--4-6b8---6-4---4-------4-6~-4-6--------4~---------------|
D|----------------------------------4h6----------------------------------|
A|-----------------------------------------------------------------------|
E|-----------------------------------------------------------------------|

E|--------------------------------------------------------4-6-7~---------|
B|---------------------7---------------------------4-5-7-----------------|
G|----4-6b8---6~---4-6b8-6b8--4~-4-----4-6b8--4-6------------------------|
D|---------------------------------4h6-----------------------------------|
A|-----------------------------------------------------------------------|
E|-----------------------------------------------------------------------|

B F# G#m E 2x
o jogo inverteu, você se perdeu
e o seu filme queimou
mas vai ser bom pra você, você vai aprender
a dar mais valor pra quem te deu

Riff:

OBS: Com distorção

e|------------11-------------|
B|-9-----12-9------11----12--|
G|---8-9---------9----10-----|
D|---------------------------|
A|---------------------------|
E|---------------------------|

G#m              E 
pois quando me tinha não soube cuidar
G#m       D#                     E 
ganhava sempre no seu jogo de amar
            B           F#            E 
e agora vem correndo me pedindo pra voltar
         F#
não vai dar


e|------------------|
B|------------------|
G|------------------|
D|------------------|
A|--4-6-6h7-6-4-1-2-|
E|-2----------------|

B                  F#                     E   
cê abusou do meu amor e tá pedindo pra voltar   :
F#                                              : Refrão 2x
e eu tô dizendo não vai dar                     :

Riff 2
( B - F# - G#m - E )
e|------------------------------------------------------|
B|------------------------------------------------------|
G|--4444444--66-8-6666666--88-9--8888888--66-8/-4x4x4x3-|
D|------------------------------------------------------|
A|--2222222--44-6-4444444--66-7--6666666--44-6/-2x2x2x1-|
E|------------------------------------------------------|

e|--------------------------------------------------|
B|--------------------------------------------------|
G|--4444444--66-8-6666666/9-9-8-6-8888888-66-88/9t--|
D|--------------------------------------------------|
A|--2222222--44-6-4444444/7-7-6-4-6666666-44-66/7t--|
E|--------------------------------------------------|

G#m              E 
pois quando me tinha naum soube cuidar
G#m       D#                     E 
ganhava sempre no seu jogo de amar
            B           F#            E 
e agora vem correndo me pedindo pra voltar
         F#
naum vai dar

B                  F#                     E 
cê abusou do meu amor e tá pedindo pra voltar      :
F#                                                 : Refrão 6x
e eu tô dizendo não vai dar                        :


Obs: No refrão, enquanto a base faz as notas E e F# a outra guitarra
     faz E D# C# em oitava.
Composición de Dedeco / Miguel
331 vistas
    • ½ Tono
    • A
    • Bb
    • B
    • C
    • Db
    • D
    • Eb
    • E
    • F
    • F#
    • G
    • Ab
  • Agregar a la lista

    0 comentarios

    Ver todos los comentarios

    ¿Lograste tocar?

    9 Tocaron 0 Aún no

    ¡Graba un video tocando 1x0 Eu y envíanoslo!

    00:00 / 00:00
    Outros vídeos desta música
    Repetir Calidad Automático
    Outros vídeos desta música
    00:00 / 00:00
    Automático
    OK