Cifra Club

Bang Bang

Dibob

Cifrado: Principal (guitarra y guitarra eléctrica)
tono: A
[Intro]

[Solo]

E|--------------------------------------------------------------------------------------------|
B|--------------------------------------------------------------------------------------------|
G|--------------------------------------------------------------------------------------------|
D|---------7767---7767---7767---7767---7767---7767---7767---7767-4-7767-4-7767-4-7767-4-7767--|
A|-----------------------------------7------7------7------7-----------------------------------|
E|-0-2-4-5------5------5------5---------------------------------------------------------------|

E|-------------------------------|
B|-------------------------------|
G|-------------------------------|
D|----7767---7767---9--7--6------|
A|--7------7-----------------7---|
E|-------------------------------|

A
Eu sei que deve ser dificíl pra você
E
Acreditar em tudo aquilo que eu vou te falar
D
Eu só tenho a verdade pra me defende   
C#7                             F#m
E você mil detetives pra me incriminar

A
Quando saio com os amigos pra me distrair
E
Já tem gente me filmando pra complicar
D
Mas não sabem que num filme sem você eu sou
C#7                         F#m
Figurante sem destino nem história

Bm                         E
E eu te digo que o motivo eu sei
A                 F#m
Entre bares e butiquins
Bm                     D
Vão dizer que sou fora da lei
 E                            A
Mas essa lei quer te tirar de mim

                       Bm
Voce me diz que o tempo inteiro
           E                  A
Vivo forasteiro, só dando passeio
              F#m
Dentro do seu coraçao
            D                 C#7
Que eu não presto, como todo resto
              F#m
Também sou vilão
          Bm
Mas se esquece
                 E                  A
Mesmo se eu quisesse, nem por uma prece
             F#m
Eu consigo te esquecer
        D                     E
O forasteiro, só quer ser posseiro
           A
Do seu coração

[Solo]

D                            E
E eu te digo que o motivo eu sei
 A                 F#m
Entre bares e butiquins
Bm                      D
Vão dizer que sou fora da lei
 E                            A
Mas essa lei quer te tirar de mim

                       D
Você me diz que o tempo inteiro
           E                  A
Vivo forasteiro, só dando passeio
              F#m7
Dentro do seu coração
            D                 C#7
Que eu não presto, como todo resto
              F#m
Tambem sou vilão
          D
Mas se esquece
                 E                  A
Mesmo se eu quisesse, nem por uma prece
             F#7m
Eu consigo te esquecer
        D                     E
O forasteiro, só quer ser posseiro
           A
Do seu coração
00:00 / 00:00
Otros videos de esta canción
Repetir
Otros videos de esta canción
Compositor no encontrado.
Colaboración y revisión:
118 vistas
    • ½ Tono
    • A
    • Bb
    • B
    • C
    • Db
    • D
    • Eb
    • E
    • F
    • F#
    • G
    • Ab
  • Agregar a la lista

    0 comentarios

    Ver todos los comentarios

    ¿Lograste tocar?

    4 Tocaron 1 Aún no

    ¡Graba un video tocando Bang Bang y envíanoslo!

    00:00 / 00:00
    OK