Cifra Club

Aprenda

Cilada

Dibob

Tablatura: Principal (guitarra)
tono: B
G#
Quase morri do coração
F#
Quando ela me convidou
E
Pra conhecer o seu ap
F#
Me amarrei, demorou
G#
Ela me usou o tempo inteiro
F#
Com seu jeitinho sedutor
E
Eu fiz serviço de pedreiro
F#
De bombeiro, encanador

 ( G# F# E D# E F# )
E|-----------------------------------------------------------------------------|
B|--------12-11----11---------12-11----11--------12--9--11-11~-11-11-12-11~/---|
G|-----13-------13---------11-------13--------9--------------------------------| (2x)
D|-/13-----------------/11-----------------/9----------------------------------|
A|-----------------------------------------------------------------------------|
D|-----------------------------------------------------------------------------|

G#       F#
Inocente, apaixonado
E
Eu tava crente que
       D#         E     F#
Que ia ser uma história de amor
G#         F#
Que cilada, desilusão
E
Ela me machucou
 D#         E   F#
E só usou meu coração

Refrão:
E           F#      G#
Não era amor, ôh, ôh
E           F#     G#
Não era amor, era cilada
E           F#      G#
Não era amor, ôh, ôh
E           F#     G#
 Não era amor, era

G#
Quase morri do coração
F#
Quando ela me convidou
E
Pra conhecer o seu ap
F#
Me amarrei, demorou
G#
Ela me usou o tempo inteiro
F#
Com seu jeitinho sedutor
E
Eu fiz serviço de pedreiro
F#
De bombeiro, encanador

  G# F# E D# E F# 
E|-----------------------------------------------------------------------------|
B|--------12-11----11---------12-11----11--------12--9--11-11~-11-11-12-11~/---|
G|-----13-------13---------11-------13--------9--------------------------------| (2x)
D|-/13-----------------/11-----------------/9----------------------------------|
A|-----------------------------------------------------------------------------|
D|-----------------------------------------------------------------------------|

G#       F#
Inocente, apaixonado
E
Eu tava crente que
       D#         E     F#
Que ia ser uma história de amor
G#         F#
Que cilada, desilusão
E
Ela me machucou
 D#         E   F#
E só usou meu coração

Refrão:
E           F#      G#
Não era amor, ôh, ôh
E           F#     G#
Não era amor, era cilada 2x

Solo 4x: ( E F# G# )

E|-----------------------------------------------------------------------------|
B|-----------------------------------------------------------------------------|
G|---------------------5------------5~-----------------------------------------|
D|---------------5--5----7--5---5-7----7---5-7------------------4h6-6~-4-6-4~--|
A|--7~-----5-7~---7--7--------7----------7------3h5-3-0-3~--4h6----------------|
D|-------/7--------------------------------------------------------------------|

E|--------------7-4--4-6-4---------------------------------14------------------|
B|-4-------7~-------7------7-4-7-4-----7-4--------7~---14b---14-12-------------|
G|---6-4-6b------------------------6-4-----6-4-6b-------------------13/--------|
D|-----------------------------------------------------------------------------|
A|-----------------------------------------------------------------------------|
D|-----------------------------------------------------------------------------|

E|-----------------------------------------------------------------------------|
B|-----------------------------------------19b-19b~--19-16---------19-16-------|
G|-13-13-13--11-11-11-11-11--13-13-13-11~---------------------18-16-----18-16--|
D|-13-13-13--13-13-13-13-13--13-13-13------------------------------------------|
A|-----------------------------------------------------------------------------|
D|-----------------------------------------------------------------------------|

E|-------------------------------------|
B|-19-16-----19-16--------------19-----|
G|------18-16-----18-16-18b-18b---18b~-|
D|-------------------------------------|
A|-------------------------------------|
D|-------------------------------------|

Refrão:
E           F#      G#
Não era amor, ôh, ôh
E           F#     G#
Não era amor, era cilada (4x).

( E F# G# ) (4x)

Cilada, cilada (Cilada, cilada).
Composição de Molejo
Colaboración y revision:
  • Liandro Brandão
43 reproducciones
    • ½ Tono
    • A
    • Bb
    • B
    • C
    • Db
    • D
    • Eb
    • E
    • F
    • F#
    • G
    • Ab
  • Adicionar à lista

    0 comentarios

    Ver todos os comentários

    ¿Conseguiste tocar?

    0 Tocaram 0 Ainda não

    Grave um vídeo tocando Cilada e nos envie!

    00:00 / 00:00
    outros vídeos desta música
    repetir qualidade Automático
    Outros vídeos desta música
    00:00 / 00:00
    Automático
    OK