Cifra Club

Firula

Dibob

Tab de bajo: Principal
Ai essa musica e' aqele intrumentalzinho q eh a primera musica do cd 
e tem um baixo q alem de ser bem bonito 
e' um o'timo exercicio pra quem esta comecando.

G----12-14-12-12-14-16----16-14-16-14-17-16-14-14-----  |
D----------------------14-----------------------------  |
A-----------------------------------------------------  |
E-15--------------------------------------------------   \
                                                          2 vezes
G---14-17-14-14-14-17-14-14----12-14-12-17-16-14-12-12   /
D-----------------------------------------------------  |
A15---------------------------------------------------  |
E---------------------------15------------------------  |

agora entra a parte q eh mais rapida.
    
         G                  E               D
G------------------|----------------|----------------|
D------------------|----------------|----------------|                  
A------------------|7777777777777777|3333333333333333|                  
E-3333333333333333-|----------------|----------------|    
         C           D    C    B    F#  G
G------------------|-------------------| ||
D------------------|-------------------| ||
A-3333333333333333-|5555-3333-2222-----| ||
E------------------|---------------2222|3||


na primera parte voce pode fazer uns vibratos em algumas partes que fica 
bem legal.

_______________________________________________________
Contribuição: pedro araujo gutman(pedro_gutman@hotmail.com.br)
00:00 / 00:00
Otros videos de esta canción
Repetir
Otros videos de esta canción
Compositor no encontrado.
13 vistas

0 comentarios

Ver todos los comentarios

¿Lograste tocar?

0 Tocaron 0 Aún no

¡Graba un video tocando Firula y envíanoslo!

00:00 / 00:00
OK